"yes"; ?> Follow by Richie Havens - guitar chords, guitar tabs and lyrics - chordie

Follow

Richie Havens

-------------------------------------------------------------------------------

-------------------------------------------------------------------------------

 D5D5/E
e|---------------|
B|--3-----3------|
G|--2-----2------|
D|--0-----0------|
A|--0-----0------|
E|--0-----2------|


Strum between these two chords then:

 D5D5/ED5/F#
e|-------------------------|
B|--3-----3-----3-----3----|
G|--2-----2-----2-----2----|
D|--0-----0-----0-----0----|
A|--0-----0-----0-----0----|
E|--0-----2-----4-----2----|


 D5/B
e|--------------------------|
B|--3-----------------------|
G|--2-----------------------|
D|--0-----------------------|
A|--2-----------------------|
E|--------------------------|


Chords:

 D5D5/ED5/F#D5
 Let the river rock you like a cradle      
 D5D5/ED5/F#D5
 Climb to the treetops, child, if you're able
 D5D5/ED5GD5
 Let your hands tie a knot across the table.     
 D5D5/BA7sus4A7
 Come and touch the things you cannot feel.      

And close your fingertips and fly where I can't hold you
Let the sun-rain fall and let the dewy clouds enfold you
And maybe you can sing to me the words I just told you,
If all the things you feel ain't what they seem.
And don't mind me 'cos I ain't nothin' but a dream.

And repeats that pretty much the whole song, play around with those chords,
you'll figure it out








A7 A7sus4 D5 D5/B D5/E D5/F# G
variations - click chord images
Transpose chords:
Tuning:
Cool service:
View: Size:
A  A  A
Rating:
Layout:
  • Currently 3.2/5 Stars.
  • 1
  • 2
  • 3
  • 4
  • 5
 
Accuracy:
  • Currently 3.8/5 Stars.
  • 1
  • 2
  • 3
  • 4
  • 5
 
click stars to rate
Chordie recommends:
Get acoustic guitar lessons and electric guitar lessons at JamPlay.com
Songbook:
Login to add this song to your songbook
Support the artist
Preview/buy this song
MSN Music
Why this non-profit ad?

 
login to add comments/video/corrections