Guitar Tabs, Chords and Lyrics


The Execution Of All Things  Rilo Kiley

[E]Soldiers come [F#]quickly, I feel the [A]earth beneath my feet.[E]
I'm feeling badly, it's not an attempt at decency.

1st Riff (3:01)

e|-----12----14--12----|----12----14--12----|----12----14--12----|
B|--12----12--------12-|-11----11--------11-|-10----10--------10-|
e|-----12----16—(14)-12-| (Play note only on the second time)
B|--12----12------------|


And if you're well off, well then I'm happy some for you.
But I'd rather not celebrate my defeat and
humili[C#m]ation [B]here with [E]you.

Play 1st Riff once at 2:45, this time with distortion.

2nd Riff (2:37)

A|-11-11-11-11-|-11-12-14-|-11-11-11-11-|-11-12-14-|
E|-------------|----------|-------------|----------|
A|-11-11-11-11-|-11-12-14----|----------------| Play twice.
E|-------------|----------12-|-12-12-12-12-12-|


Someone come quickly, this place was built for moving out.
Leave behind buildings, the city planners got mapped out.

[E]   Bring with you histor[F#]y and make [A]your hard earned feast.[E]
[E]   Then we’ll all go to Oma[F#]ha, to work[A] and exploit the

[C#m]booming mu[B]sic sc[A]ene and humility.    [E]  [Bm]   [A]  [G]  [F#7]
3rd Riff (1:57) And we've been talking all night....
e|--------------------------------|------------------------|
B|-12-12-10-12---12-10-12---------|------------------------|
G|-------------9----------9-11-12-|-12-12-11-11-9-9-7-7----| Play
D|--------------------------------|---------------------9--| Twice
A|--------------------------------|------------------------|
E|--------------------------------|------------------------|


Solo (1:35)
e|-------------------------------|-------------------|-----------9/16-|
B|-------------------------------|-------------------|------9/16------|
G|-12-11-9-7---------------13-11-|-------13-11-9-8-9—|-9/16-----------|
D|-----------9/6-6-6-6-7-9/------|-6-7-9/------------|----------------|
A|-------------------------------|-------------------|----------------|
E|-------------------------------|-------------------|----------------|
e|-------------------16-14-|----------16-14-12-11-12/\/\/\/\-|
B|-------------------------|---------------------------------|
G|-13-13-13-13-14-16/------|-13-14-16/-----------------------|
D|-------------------------|---------------------------------|
A|-------------------------|---------------------------------|
E|-------------------------|---------------------------------|


[E]Oh god come [F#]quickly, for the exe[A]cution of all things.   [E]
[E]Let's start with the [F#]bears and air and then [A]mountains rivers and s[E]treams
[E]Then we'll murder what [F#]matters to you and move o[A]n to your neighbors and [E]kids
[E]Crush all hopes of hap[F#]piness with dise[A]ase cause of what you d[E]id
[E]And lastly, you're all [F#]alone with n[A]othing left but sleep.[E]
[E]But sleep never c[F#]omes to you, just the [A]guilt and forever
[C#m]wakeful[B]ness of the [A]weak.            [C]

It's just you and me....

The execution of all things.


Important: The song above is NOT stored on the Chordie server. The original song is hosted at www.guitaretab.com. Chordie works as a search engine and provides on-the-fly formatting. Chordie does not index songs against artists'/composers' will. To remove this song please click here.

Text color:
Chord color:
Chord grids: 
Font size:    
Page size: 

A B Bm C C#m E F# F#7 G
variations - click chord images

Login - add to songbook

Transpose chords

Tuning

Rating click stars to rate

Layout
Accuracy

SHARE PAGE  




You need to log in to post comments