Guitar Tabs, Chords and Lyrics


Its A Hit  Rilo Kiley

-----------------------------------------------------------------------------



-----------------------------------------------------------------------------

[F]Any chimp can play [C]human for a day.
[F]Use his opposable thumbs to iron his [C]uniform
and [F]run for office on [C]election day
[F]fancy himself a real [C]decision maker
F C (with guitar lick x2)
and deploy more troops than salt shakers.

[F]But it's a jungle when [G]war is [C]made,
[F]and you'll panic and throw your own [G]shit at the [C]enemy.
[F]The camera pulls [G]back to reveal your [C]true [B/G]identity.
[Am]Look, it's a [F]sheep in wolf's clothing.
[G]A smoking gun holding ape.

Guitar Lick X2

[F]Any asshole can open up a [C]museum.
Put all of the [F]things he loves on [C]display

so everyone could see them.
[F]The house, a car, a thoughtful [C]wife
[F]ordinary moments in his ordinary [C]life.

Guitar Lick X 1

[F]But if she breaks a smile, she'll [G]give you [C]away
'cause [F]no one wants to [G]pay to see your [C]happiness.
[F]No one wants to [G]pay to see your [C]day [B/G]to day
[Am]and I'm not [F]buying it either
[G]but I'll try selling it [F]anyway.

Guitar Lick X 4
Trumpet Lick X 4

[F]Any idiot can play [C]Greek for a day
[F]and join a sorority or [C]write a tragedy
and [F]articulating all that [C]pain
and [F]maybe you'll get [C]paid.

Guitar Lick X1

But it's a [F]sin when [G]success comp[C]lains,
and your [F]writers block- it [G]don't mean [C]shit.
[F]Just throw it against the [G]wall and [C]see [B/G]what [Am]sticks.
Gotta write a [F]hit.
I think this is [G]it.
It's a [F]hit.

Guitar Lick X 2
Trumpet Lick X 2

You get the idea. It isn't hard.

Guitar Lick:
e|-1--1-1h3---1-0--0-8h10p8-------------------------------------------------|
B|-1--1-----3---1--1--------------------------------------------------------|
G|--------------------------------------------------------------------------|
D|--------------------------------------------------------------------------|
A|--------------------------------------------------------------------------|
E|--------------------------------------------------------------------------|


Trumpet Lick:
e|-----0----------------0------3-0------------------------------------------|
B|-1-3----3-1-1-----1-3----3-1-----1----------------------------------------|
G|--------------------------------------------------------------------------|
D|--------------------------------------------------------------------------|
A|--------------------------------------------------------------------------|
E|--------------------------------------------------------------------------|



| / slide up
| \ slide down
| h hammer-on
| p pull-off
| ~ vibrato
| + harmonic
| x Mute note
=============================================================================

Important: The song above is NOT stored on the Chordie server. The original song is hosted at www.guitaretab.com. Chordie works as a search engine and provides on-the-fly formatting. Chordie does not index songs against artists'/composers' will. To remove this song please click here.

Text color:
Chord color:
Chord grids: 
Font size:    
Page size: 

Am B/G C F G
variations - click chord images

Login - add to songbook

Transpose chords

Tuning

Rating click stars to rate

Layout
Accuracy

SHARE PAGE  




You need to log in to post comments