Guitar Tabs, Chords and Lyrics


Portions For Foxes  Rilo Kiley

e---2-------------2-----------|


B-----3---3---3-----3---3---3-|


G-------2---2---------2---2---|

D-0-------------0-------------|
A-----------------------------|
E-----------------------------|
e---2-----2h3--2------2----2------------3---------------(2)------|
B-----3----------3------2----2------3-----3---------3----3---3---|
G-------2-----------------2----2------0-----0---------2----2---2-|
D-0----------------0--------------------------0------------------|
A-------------------------------------------------0--------------|
E---------------------------------3------------------------------|
e--5555-7777----------5555-7777----------|
B------------77777777-----------55555555-|
G----------------------------------------|
D----------------------------------------|
A----------------------------------------|
E----------------------------------------|
e-5555-7777-10101010-121212-14-1010101010101010--------------------------|
B------------------------------------------------------------------------|
G------------------------------------------------7777-9999-11111111-9999-|
D------------------------------------------------------------------------|
A------------------------------------------------------------------------|
E------------------------------------------------------------------------|
There's [D5]blood in my mouth 'cause I've been biting my tongue all week[A5]
I keep on [G5]talkin' trash but I never say anything  [D5]
And the talkin' leads to touchin'
and the [A5]touchin' leads to sex
and the[G5]n there is no mystery left [D5]


CHORUS

And it's [D]bad news
Baby I'm [A]bad news
I'm just [G]bad news, bad news, bad news[D]

THEN THIS AGAIN

e--5555-7777----------5555-7777----------|
B------------77777777-----------55555555-|
G----------------------------------------|
D----------------------------------------|
A----------------------------------------|
E----------------------------------------|
e-5555-7777-10101010-121212-14-1010101010101010-|
B-----------------------------------------------|
G-----------------------------------------------|
D-----------------------------------------------|
A-----------------------------------------------|
E-----------------------------------------------|



VERSE

I [D5]know I'm alone if I'm with or without you [A5]
but just [G5]bein' around you offers me another form of relief[D5]

When the lonliness leads to bad dreams
and the [A5]bad dreams lead me to callin' you
and I [G5]call you and say "C'MERE!"[D5]


CHORUS

And it's [D]bad news
Baby I'm [A]bad news
I'm just [G]bad news, bad news, bad news[D]

And it's bad news
Baby it's [A]bad news
It's just [G]bad news, bad news, bad news[D]


BRIDGE

'Cause you're just [B5]dam[Db5]age [D5]con-[A5]trol            (Palm mute this part)
for a [B5]walk[Db5]ing [D5]corpse like [A5]me - like [D5]you

INTERLUDE

[D5]        [E5]   [D5]   [Db5]    [B5]   [Db5]    [D5]   [E5]         

BACK TO BRIDGE

'Cause we'll [A5]all be [Db5]    [D5]
E5 F#5* E5 D5
Portions for foxes
Yeah we'll [D5]all be [Db5]
G5* F#5* E5 A5* F#5* E5 Db5
Portions for foxes


BACK To 1ST PART OF INTRO

e---2-------------2--------------|
B-----3---3---3-----3---3---3----|
G-------2---2---------2---2------|
D-0-------------0----------------|
A--------------------------------|
E--------------------------------|



VERSE

There's a [D5]pretty young thing in front of you     (Play this part softly)
and she's [A5]real pretty and she's real into you
and then s[G5]he's sleepin' inside of you [D5]

and the talkin' leads to touchin'
and the [A5]touchin' leads to sex
and th[G5]en there is no mystery left[D5]


CHORUS

And it's [D]bad news
I don't [A]blame you
I do the [G]same thing I get lonely too [D]

And you're bad news
My friends tell me to [A]leave you
That you're [G]bad news, bad news, bad news [D]


OUTRO

You're bad news
Baby you're [G]bad news
and you're [D]bad news
Baby you're [G]bad news
and you're [D]bad news
I don't care I [G]like you
and you're [D]bad news
I don't care I [G]like you
I [A]like you [D]

Important: The song above is NOT stored on the Chordie server. The original song is hosted at www.guitaretab.com. Chordie works as a search engine and provides on-the-fly formatting. Chordie does not index songs against artists'/composers' will. To remove this song please click here.

Text color:
Chord color:
Chord grids: 
Font size:    
Page size: 

A A5 B5 D D5 Db5 E5 G G5
variations - click chord images

Login - add to songbook

Transpose chords

Tuning

Rating click stars to rate

Layout
Accuracy

SHARE PAGE  




You need to log in to post comments