Guitar Tabs, Chords and Lyrics


Ripchord  Rilo Kiley

e|---10-10-10-10----1010-1010-10--10-9-----7-7-7-7---77-77-7-3-3-3-3-|


B|---10-10-10-10----1010-1010-10--11-10----7-7-7-7---77-77-7-3-3-3-3-|


G|---11-11-11-11----1111-1111-11-----------7-7-7-7---77-77-7-4-4-4-4-|

D|12--------------12---------------------9---------7---------5-5-5-5-|
A|12--------------12---------------------9---------9---------5-5-5-5-|
E|10--------------10---------------------7---------7---------3-3-3-3-|
e|5-5-5-5--5555-3/33-|
B|5-5-5-5--7777-3/33-|
G|6-6-6-6--6677-4/44-|
D|7-7-7-7--7777-5/77-|
A|7-7-7-7--5555-5/77-|
E|5-5-5-5-------3/55-|
e|3~3-2-2-2-2--7-7-7-7-7-7-7-7--3-3-3-3-0--33-5-|
B|3~3-2-2-2-2--7-7-7-7-7-7-7-7--3-3-3-3-2--22-2-|
G|0~0-3-3-3-3--7-7-7-7-7-7-7-7--4-4-4-4-2--22-2-|
D|0~--4-4------9-9-----7-7-7-7--5-5-----2--22-2-|
A|2~--4--------9-------9--------5-5-----0--00-0-|
E|3~--2--------7-------7--------3-3-------------|
[D]pull the ripchord
the[Bb] ship has[A] lost its sail
[Bm]you momma's got a new man
[Bm7]and your daddy always fails
[G]and you eating again
[A]at them
[D]'cause [Dmaj7]nobody loves you.
[D]and even fancy things
[Bb]have finall[A]y lost their charm
[Bm]wine and diamond rings
[Bm7]they never get you anymore
[G]you're sleeping again
[A]alone
[D]'cause nob[Dmaj7]ody loves you
G(openstrings) F#
oooh
[Bm]they should have seen you
[Bm7]should have known you
[G]should have known w[A]hat it was like
[A7]to be you  [A5]


[D]so come on kid
[Bb]look at [A]what you did
[Bm]I don't know if you meant it
[Bm7]but you did yourself in
[G]and I was even having a good day
[A]when I'd found out we l[D]ost [Dmaj7]you
repeat verse again with ohhs and yeahs an ho ho ho's


[G]oooh[F#]
[Bm]she said it was in t[Bm7]he singing and the stru[G]mming
oh m[A]an I [A7]even saw it [A5]coming
whistling part that is on cd but i saw it live with some dude doing
this part on horns

e|10-1414-1414--10\9-10-9-7-7-1010-1010-7\5-7-5-77-5-3-2-00-------|
B|----------------------------------------------------------22233-|
G|----------------------------------------------------------------|


do that like twice. again that is just a guide listen to the song to get the real timing
most of the right notes are there.


thank you for looking at this tab. its a pretty cool song, i hope you sing it with all soul and heart.
-Alex I. a fuzzy haired kid.

Important: The song above is NOT stored on the Chordie server. The original song is hosted at www.guitaretab.com. Chordie works as a search engine and provides on-the-fly formatting. Chordie does not index songs against artists'/composers' will. To remove this song please click here.

Text color:
Chord color:
Chord grids: 
Font size:    
Page size: 

A A5 A7 Bb Bm Bm7 D Dmaj7 F# G
variations - click chord images

Login - add to songbook

Transpose chords

Tuning

Rating click stars to rate

Layout
Accuracy

SHARE PAGE  




You need to log in to post comments