Guitar Tabs, Chords and Lyrics


A Manmethen Jim  Rilo Kiley

-7---5---------0-----2--------7--5------0--2--0------|


-7---7---7—-----3----------3--7--7--7--3---------3---|


-7---7-----7---2--------------7--7------2---------2--|

----------------0------------------------0---------0-|
-------------------0---0-----------------------------|
-----------------------------------------------------|
----0--0---------2--2---------0--0---------7--5----------------------------|
-3---------3------------3------------3-----7--7--7------------------7------|
-0------------0-------------0-----------0--7--7-----7--------------*7/9/7--|
-0-----------------------------------------------------------------7-------|
----------------------------------------------------------5--7/9-----------|
-3-------------------------------------------------------------------------|
-0-----2--2---------3--3---------2--2---------7--5--7--5--2---|
-2-----------2--------------2------------2------7--7--7--7--3-|
-2---------------2-------------2-------------2--7--7--7--7--2-|
-2------------------------------------------------------------|
-0------------------------------------------------------------|
--------------------------------------------------------------|
[D]i had one friend in high school recently he hung himself with string
his note said,

[G]"If livin' is the problem, well, that's just baff[D]ling."

[D]and at the wake i waited around to see my ex first love
[G]and i barely recognized her, but i knew exactly what she was [D]thinking of
[A]we sat quietly in the corner [G]whispering close about [D]loss
[A]and i remembered why i loved her, and [G]i asked her why i drove her [D]off
she said, [G]"the slow [A]fade of [D]love
its [G]soft edge [A]might [D]cut you
[G]and our poor friend, [F#m7]jim,
well, [D]he just [A]lived [G]within
[G]the slow [A]fade of [D]love"
[D]a woman calls my house once a week she's always selling things
[G]some charity, a phone plan, a subscription to a mag[D]azine
and as [A]i turned her down, i always do, there is [G]something trembling in her [D]voice
i said, "[A]hey what troubles you?" she sai[G]d "i'm suprised you not[D]iced"
[D]"well my husband, he's leaving, and i can't convince him to stay
and he'll [G]take our daughter with him she wants to go with him any[D]way
i'm [A]sorry i'm hard to live with, [G]living is the problem for m[D]e
[A]i'm selling people things they don't want [G]when i don't know what you n[D]eed"
he said "[G]the slow [A]fade of [D]love
it's [G]mist [A]might [D]choke you
its my [G]gradual [F#m7]decent
into a [D]life i [A]never [G]meant
its the [G]slow [A]fade of [D]love"
(instrumental interlude for about 30/25 seconds)

(play this verse quietly)
D (let it ring)
i was driving south of melrose i happened upon my old lover's old house
-2/-10/-2/-10-|
-3/-----3/----|
--------------|
--------------|
--------------|
--------------|

(slide, loud)

G D (let these
ring)
i found myself staring at the closed up door like the day she threw me out

D (start strumming normally again)
"diana, diana, diana i would die for you

i'm in [G]love with you completely, i'm afraid thats all i can d[D]o"

she said "you can [A]sleep upon my doorstep, you can [G]promise me indifference, [D]jim,
A(let it ring) G(let it ring) D(strum normally)
but my mind is made up, and i'll never let you in again"...

-2/-10/-2/-10-|
-3/-----3/----|
--------------|
--------------|
--------------|
--------------|

(slide, loud)

"for the [G]slow [A]fade of [D]love

it might [G]hit you [A]from below[D]
its your [G]gradual d[F#m7]ecent
into a [D]life you [A]never [G]meant
its the [G]slow [A]fade of [D]love
(repeat last phrase several times and fade out)


if theres any questions message me here
http://myspace.com/ohnokelsey

Important: The song above is NOT stored on the Chordie server. The original song is hosted at www.guitaretab.com. Chordie works as a search engine and provides on-the-fly formatting. Chordie does not index songs against artists'/composers' will. To remove this song please click here.

Text color:
Chord color:
Chord grids: 
Font size:    
Page size: 

A D F#m7 G
variations - click chord images

Login - add to songbook

Transpose chords

Tuning

Rating click stars to rate

Layout
Accuracy

SHARE PAGE  




You need to log in to post comments