Chordie logo

Paints Peeling  Rilo Kiley

---------------------------------------|


---------------------------------------|


---------------------------------------|


----6------6------4------7-------------|


-4-4--4-0-0--0-2-2--2/5-5--5-----------|


---------------------------------------|




-9-7-----------------------7---7-9-7---7---|


-----9---7-----7-9-7---------9-------9---9-|


-------9---9-9-------9-6-9-----------------|


-------------------------------------------|


-------------------------------------------|


-------------------------------------------|



-------------------------------------------------------|


-7-9-----9---7-7-----9---7-9---------------------------|


-----9-6---9-----9-6---9-----9-6-6-6---6---------------|


-------------------------------------9---9-6-9---------|


-------------------------------------------------------|


-------------------------------------------------------|



-------------------|


-------------------|


-------------------|


-6-6-6---6---7-6---|


-------9---9-------|


-------------------|







And I [A]feel nothi[Am]ng, not brave. It's a hard day for breathing again.


The heat is chasing off all of your friends


and their scattered bodies part to the shore again.


And I feel nothing, not sane. It's a hard day for dreaming again.

[E]I'm not going [A]back to the assholes that [E]made me, and the perfect [A]display of

random acts of [E]hopelessness. I wish I could [A]stay here

but I [C]think we're all ready. I [D]think we're all ready.

Upslide Riff
------------------------------------------|
--------------9----9----------------------|
-----4-4/6-6-6-6-6---6/2------------------|
------------------------------------------|
-0-0--------------------------------------|
------------------------------------------|


Second Solo
------12-9-7---------------------------------------------|
----12------9-7-9---7-9-7-9-7-9--------------------------|
--13-------------9-6---9---------9-10-12-10-9-7-9-7-9/12-|
---------------------------------------------9---9-------|
---------------------------------------------------------|
---------------------------------------------------------|
-12-9-11-12---------------------------------------------|
-----------10-12-10-9-7-9-------------------------------|
---------------------9---9-6-6-6---6--------------------|
---------------------------------9---9-6-9-6-6-6-6------|
------------------------------------------------9-9-7-6-|
--------------------------------------------------------|


And I feel nothing, not safe. It's a hard day for dreaming again.


Now that you've seen almost all of America, all you can say is


"where is all the water?" The war has been over for years since you gave up.

[A]Last night, where the r[C]oad had [B]started

and l[A]ast night when my [C]hands were [B]choking you.

[A]Last night, when the [C]room and your [B]mood was dipping,

[A]and last night when the [C]ropes were [B]pulling you in.

You said, [Em]"He[B]y,[A]   [Em]how could you [B]love me this [A]way?"

You said, [Em]"He[B]y,[A]    but I[C] think we're all ready."[D] I think we're all ready.

Play Upslide Riff again

Ending riff

----5-----5-----5-----5-----5-----5-----5-----5---------|
--------------------------------------------------------|
--------------------------------------------------------|
-4-4-4-4-4-4-4-4-4-4-4/7-7-7-7-7-7-7-7-7-7-7-7-7--------|
--------------------------------------------------------|
--------------------------------------------------------|
----5-----5-----5-----5-----5-----5-----5-5-4-4---------|
------------------------------------------------7-7-7-7-|
--------------------------------------------------------|
-4-4-4-4-4-4-4-4-4-4-4/7-7-7-7-7-7-7-7-7-7-7-7-7-7-7----|
--------------------------------------------------------|
--------------------------------------------------------|
----5-5/9-9-9-7-5----|
-6-------------------|
---------------------|
---7-----------------|
---------------------|
---------------------|				


Important: The song above is NOT stored on the Chordie server. The original song is hosted at www.guitaretab.com. Chordie works as a search engine and provides on-the-fly formatting. Chordie does not index songs against artists/composers will. To remove this song please click here.

A Am B C D E Em
variations - click chord images

Login - add to songbook

Transpose chords

Tuning

Rating click stars to rate

Layout
Accuracy

SHARE PAGE  

You need to log in to post comments