Highroller

Rippingtons

|--------------------------|-----------------------------|

|-13--12--10--12-----------|----------------8-10------10-|
|-----------------10--7--7-|-7--9--7--9--7--------11-----|
|--------------------------|-----------------------------|
|--------------------------|-----------------------------|
|--------------------------|-----------------------------|
|-----------------|--------------------|------------------------|
|-10--12----------|--------------------|-13--15--17--15---------|
|---------9--7--7-|-10--10--12---------|-----------------16--14-|
|-----------------|-------------14--12-|------------------------|
|-----------------|--------------------|------------------------|
|-----------------|--------------------|------------------------|
|--------------------|--------------------|----------------|
|--------------------|-------------13--15-|-15--13---------|
|-14--14--16---------|-----12--14---------|---------14--12-|
|-------------14--12-|-14-----------------|----------------|
|--------------------|--------------------|----------------|
|--------------------|--------------------|----------------|
|------------|----------------|------------------------|
|---------10-|---------10--11-|-13--10-----------------|
|-----10-----|-10--12---------|---------10----------10-|
|-12---------|----------------|-------------12--12-----|
|------------|----------------|------------------------|
|------------|----------------|------------------------|
|------------------------|------------|----------------|
|---------13-------------|---------10-|-------------11-|
|-12--12------14--12--10-|-----10-----|-10--12--13-----|
|------------------------|-12---------|----------------|
|------------------------|------------|----------------|
|------------------------|------------|----------------|
|-----11-------------------------|-----11-----|
|-13------12--11-----------------|-11------13-|
|-----------------13--13--10--13-|------------|
|--------------------------------|------------|
|--------------------------------|------------|
|--------------------------------|------------|

 DbAbEbFm
|-9--11-----------------|----------------------------|
|--------13--11------11-|-11------11------13--11-----|
|----------------13-----|-----13------13----------13-|
|-----------------------|----------------------------|
|-----------------------|----------------------------|
|-----------------------|----------------------------|


 DbAbEBF#
|-------------------------9-|-11--9------9---------|
|-----------------11--12----|--------12-----12-----|
|-----13--13--13------------|-------------------13-|
|-15------------------------|----------------------|
|---------------------------|----------------------|
|---------------------------|----------------------|

 DbAbEbFmEb
|-------------16---------|---------11----------------|
|-13--16--16------13--11-|-11--13------11--12--11--9-|
|------------------------|---------------------------|
|------------------------|---------------------------|
|------------------------|---------------------------|
|------------------------|---------------------------|


 DbAbEF#F#
|------------------9-|-11-9------9--9--11-|
|-----9--9--9--12----|-------12-----------|
|-10-----------------|--------------------|
|--------------------|--------------------|
|--------------------|--------------------|
|--------------------|--------------------|				



Ab B Db E Eb F# Fm
variations - click chord images
Transpose chords:
Tuning:
Cool service:
View: Size:
A  A  A
Rating:
Layout:
  • Currently 3.4/5 Stars.
  • 1
  • 2
  • 3
  • 4
  • 5
 
Accuracy:
  • Currently 3.3/5 Stars.
  • 1
  • 2
  • 3
  • 4
  • 5
 
click stars to rate
Chordie recommends:
Learn to play this song & others via video guitar lessons at JamPlay.com
Songbook:
Login to add this song to your songbook
Support the artist
Preview/buy this song
MSN Music
Why this non-profit ad?

 
login to add comments/video/corrections