Chordie logo

Worth Dying For   Rise Against



The other tabs were missing some things (like a second guitar for example) so  felt like
atleast a better tab.I'll give can_i_say for the intro becuase i think its right and
change it. I also included at bridge that no one else felt like putting in. This is my 
tab and it is 90% right (atleast). Feel Free to leave comments. Guitar 2 is a bit fainter than guitar 1.

Standard tuning

Intro (x2)

Guitar 1

|--------------------------|-------------------|
|--------------------------|-------------------|
|---6------------4---------|-------------------|
|---6---7---2~---4---------|--//////////////---|
|---4---7---2~---2---------|--//////////////---|
|-------5---0~-------------|--//////////////---|
                               ^ Pickslide

Verse (x2)
Guitar 1
|----------------------------------------------|
|----------------------------------------------|
|-66666666--99999999--99999999--44444444-------|
|-66666666--99999999--99999999--44444444-------|
|-44444444--77777777--77777777--22222222-------|
|----------------------------------------------|

Guitar 2
|----------------------------------------------|
|----------------------------------------------|
|----------------------------------------------|
|-66666666--99999999--99999999--44444444-------|
|-44444444--77777777--77777777--22222222-------|
|----------------------------------------------|

Pre Chorus
Both guitars
|----------------------------------------------|
|----------------------------------------------|
|-------------------------------444444-444444--|
|-77777777--44444444--77777777--444444-444444--|
|-77777777--44444444--77777777--222222-222222--|
|-55555555--22222222--55555555-----------------|

|----------------------------------------------|
|----------------------------------------------|
|-------------------------------444444444444---|
|-77777777--44444444--77777777--444444444444---|
|-77777777--44444444--77777777--222222222222---|
|-55555555--22222222--55555555-----------------|
                                 ...........
                                    pm
Chorus
Guitar 1
|----------------------------------------------|
|----------------------------------------------|
|-66666666----------------------44444444-------|
|-66666666--77777777--22222222--44444444-------|
|-44444444--77777777--22222222--22222222-------|
|-----------55555555--00000000-----------------|

Guitar 2
|----------------------------------------------|
|----------------------------------------------|
|----------------------------------------------|
|-66666666----------------------44444444-------|
|-44444444--77777777--22222222--22222222-------|
|-----------55555555--00000000-----------------|

Post Chorus (x3)
Guitar 1
|----------------------------------------------|
|----------------------------------------------|
|-66-666666---------------sorry for------------|
|-66-666666-------------some reason my speakers|
|-44-444444--------------wont pick up this part|
|--------------so ill find another wa to get it|
     ...
      pm

Verse 2nd time
Guitar 1 same

Guitar 2
|----------------------------------------------|
|----------------------------------------------|
|-6~~-9~~-99-11-8~-------------//////----------|
|-x---x---xx-x--x--------------//////----------|
|-4~~-7~~-77-9--6--------------//////----------|
|----------------------------------------------|
                               Pickslide

Interlude thingy (or bridge)
Bass plays

Guitar 1
|----------------------------------------------|
|-9--------------------------------------------|
|--9~~-8-9~~-----------------------------------|
|----------------------------------------------|
|----------------------------------------------|
|----------------------------------------------|


Then (those are 3 11s) x$
|-----------------------------------------------------------|
|-----------------------------------------------------------|
|9-99-9-99-9-99-9-99-9-99-111111-9-99-9-99-8-88-8-88-8-88888|
|9-99-9-99-9-99-9-99-9-99-111111-9-99-9-99-8-88-8-88-8-88888|
|7-77-7-77-7-77-7-77-7-77-9-9-9--7-77-7-77-6-66-6-66-6-66666|
|-----------------------------------------------------------|
   ..   ..   ..   ..   ..          ..   ..   ..   ..   ..


Guitar 2 comes in after 2 of the above
|--------------------------------|
|--------------------------------|
|-6~~/8~~/9~~\8~~----------------|
|-x---x---x---x----\\\\\---------|
|-4~~/6~~/7~~\6~~--\\\\\---------|
|--------------------------------|
                   pickslide
Last Pre Chorus
Guitar 1 same

Guitar 2    x3  Last time
|-------------|------------------|
|-------------|------------------|
|-999999-88-6-|9-----------------|
|-xxxxxx-xx-x-|x-----------------|
|-777777-66-4-|7-----------------|
|-------------|------------------|

Last chorus I think I hear a faint
Guitar 2
|--------------------------------|
|--------------------------------|
|-9999999-9999999-9999999-8888888|
|-xxxxxxx-xxxxxxx-xxxxxxx-xxxxxxx|
|-7777777-7777777-7777777-6666666|


Important: The song above is NOT stored on the Chordie server. The original song is hosted at www.guitaretab.com. Chordie works as a search engine and provides on-the-fly formatting. Chordie does not index songs against artists/composers will. To remove this song please click here.

This song is displayed as text-only. Transposing and tuning is only available for chordpro-songs.

Login - add to songbook

Rating click stars to rate

Layout
Accuracy

SHARE PAGE  

You need to log in to post comments