Chordie logo

Black Nothing Of A Cat     Riverboat Gamblers



Black Nothing of a Cat by the Riverboat Gamblers
Standard Tuning
tabbed by Carol Bruggeman

This is 99% right.

Intro/Verse
e-------------------------------------------------------------------------|
B-----------------------------------------------------8------------7------|
G---------------------------------------------------9---9--------7-- 7----|
D------12-----12---12-------12-------12----12-----9-------9----7------7---|
A--9-9----9-9----9----10-10----10-10----10------7-------------5-----------|
E-------------------------------------------------------------------------|


Pre-Chorus
e-----------------------------------------------------------------------|
B-----------------------------------------------------------------------|
G--------------------------------------------------7-7-x-x-7-7----------|
D--7-7-x-x-7-7-x-x-9-9-x-x-9-9-x-x-5-5-x-x-5-5-x-x-7-7-x-x-7-7----------|       x2
A--7-7-x-x-7-7-x-x-9-9-x-x-9-9-x-x-5-5-x-x-5-5-x-x-5-5-x-x-5-5----------|
E-- 5-5-x-x-5-5-x-x-7-7-x-x-7-7-x-x-3-3-x-x-3-3-x-x---------------------|


Chorus
e------------------------------------------|
B------------------------------------------|
G--------------7---------------------------|
D--7---9---5---7-------        each chord--| x8
A--7---9---5---5---------------------------|
E-- 5---7---3------------------------------|


2nd Verse
1 guitar plays intro and the other plays this
kinda staccato
e------------------------------------------------------------|
B------------------------------------------------------------|
G-11-11--11-11-11--12-12--12-12-12--9-9--9-9-9--7-7--7-7-7---|
D-11-11--11-11-11--12-12--12-12-12--9-9--9-9-9--7-7--7-7-7---|
A--9--9---9--9--9--10-10--10-10-10--7-7--7-7-7--5-5--5-5-5---|
E------------------------------------------------------------|


back to Pre-Chorus and Chorus


Bridge
e--------------------------|
B--------------------------|
G--5-----9-----7-----------|     all that 4x and then
A--5-x6--9-x6--7-x12-------|
E--3-----7-----5-----------|

e--------------------I--------------------------|
B--------------------I--------------------------|
G--7-----------------I--------------7-----------|
D--7-a bunch of times---I--9-----5-----7-x3--7--|      x4 and then just hit all strings
A--5-----------------I--9-x3--5-x3--5-----7-x8--|            open and throw in a pick
E-------------------- I--7-----3-----------5----|           scrape
      p.m.


back to Chorus


Outro
1 guitar plays this for the last few measures while the other plays the chords to the chorus
e------------------------------------------------------|
B------------------------------------------------------|
G------------------------------------------------------|
D--2h4-4-4-4p2-2-2-2h4-4-4-4p2-2-2-2h4-4-4-4p2-2p0-0---|

A------------------------------------------------------|
E------------------------------------------------------|


That's it. Really easy song. Fun as hell to play.


Important: The song above is NOT stored on the Chordie server. The original song is hosted at www.guitaretab.com. Chordie works as a search engine and provides on-the-fly formatting. Chordie does not index songs against artists/composers will. To remove this song please click here.

This song is displayed as text-only. Transposing and tuning is only available for chordpro-songs.

Rating click stars to rate

Layout
Accuracy

SHARE PAGE  

You need to log in to post comments