Chordie logo

Crossroad Blues   Robert Johnson



I've only got the intro and verse so far, its an ok song to play while warming up. This 
a different little version that my gutiar teacher plays.

open A tuning, with capo on second fret.

also a slide is needed.

Intro
   w/slide
|--11/12----11/12~~~----------------------------------------|
|-----------11/12------11/12--------------------------------|
|-----------------------------12~~~---10-3/4------0---------|
|-----------------------------------------3/4------0--------|
|-----------------------------------------------------------|
|-----------------------------------------------------------|

|-----------------------------------------11/12----|
|-----------------------------------------11/12----|
|-----x--0-0-0-0--0--0-0---0-----------x-----------|
|--------3-3-3-2--2--1-1---0-----0-----x-----------|
|--0-------------------------2/4-------------------|
|--------3-----2-----1-1---0-------0---x-----------|

Verse

|--11/12--0-------------7/10-12-12-12-12~~-------------------|
|--11/12----------------7/10-12-12-12-12~~-------------------|
|-----------------------7/10-12-12-12-12~~-------------------|
|-----0-----0---0---0------------------0----11---------------|
|-----0-----0-x-0---0-----------------------11---2-----------|
|-------------------------------------------11---0-----------|

|---11/12-11/12-12-12-12------------12-11-12-11/12--11/12------0-0------|
|---11/12-11/12-12-12-12------10/12-12-11-12-11/12--11/12------0-0------|
|------------------------------10/12--0-----0--------------12--0-0------|
|-0-----------------------0-----------------------0--------12--0-0------|
|-0-----------------------0---0-----------------------------------------|
|-----------------------------------------------------------------------|


|---5--5--5--3--2--0------0---------5--3---3-----2--2--3-------|
|---0--0--0--0--0--0--0---0---------0--0---0-----3--3--0-------|
|------0--0-----0--0--3bq-0---------0--0---0-------------------|
|-0----------------0--0---0------0--0--0---0--------0--0-------|
|-0------------------------------0---------------------0-------|
|---------------------------2-0---------------0----------------|


|---8bq---5---8h10-8-----------8bq----5---8bq--5-----|
|-------5---5-----------------------5---5------------|
|-------5---5----0------------------------5----------|
|------------------------------------------------0---|
|-0------------------0-7/12--0-------------------0---|
|----------------------------------------------------|

|---11/12-12-11-12-11/12--12-----------5-3-2-0-----0----------------|
|---11/12-12-11-12-11/12--12-12-------0-0-0-0-------0---------------|
|---11/12-12-11-12-11/12--12-12---------0-----3bqp0-0-3-0-----------|
|----------------------0----------0---0--0---------------0--0-------|
|-0--------0------------------0---0---0--0--------------------------|
|-0---------------------------------0---------------------3---------|

|---5-3-0--2-2-3-------------------------|
|---0-0-0--3-3-3-------------------------|
|---0-0-0----0-0-------------------------|
|-0---0-0-0----0-------4/5~~~~-----------|
|-0---0-0-0----0------------------0------|
|------------------------------3---------|


|---5-3-2-0-0----------------5-5---5-------11/12-----|

|---0-0-0-0-0----------------0-0---0-------11/12-----|
|---0-0---0-0--3bq--0---0----0-0---0-----------------|
|-0-0-0-----0--0----0---0----0-0---0----0------------|
|-0---------0-------0-----0----------0--0------------|


Important: The song above is NOT stored on the Chordie server. The original song is hosted at www.guitaretab.com. Chordie works as a search engine and provides on-the-fly formatting. Chordie does not index songs against artists/composers will. To remove this song please click here.

This song is displayed as text-only. Transposing and tuning is only available for chordpro-songs.

Login - add to songbook

Rating click stars to rate

Layout
Accuracy

SHARE PAGE  

You need to log in to post comments