Tears In The Rain

Robin Beck

------------------------------

------------------------------

 -----
 DA
e |-----2--2--2--2--3--5--5-----0--0--0--0--2--3--3--|
B |--3--3--3--3--3--3--0--0-----2--2--2--2--3--5--5--|
G |--2-----------------------2-----------------------|
D |--0-----------------------2-----------------------|
A |--------------------------0-----------------------|
E |--------------------------------------------------|


 EmGA
e |--------------3-----2-----------------------0-----|
B |--------0-----------------------0--3-----------2--|
G |--0--0-----0-----0-----0-----0--------2--2--------|
D |--2-----------------------------------2-----------|
A |--2-----------------------2-----------0-----------|
E |--0-----------------------3-----------------------|


1. Verse
--------

 DDsus2D
It's a rainy night and it's over    
 F#mBm
 Tears are gonna fall any minute now.
 GABm
And I know that it's you I gotta get over
 CA
know I do but I don't know how.
 DDsus2D
I pretend that I'm in control now
 F#mBm
won't fall apart till I walk away.
 GABm
And I say to myself you're gonna be stronger
 CA
tell myself it's better this way. Oh woh

1. Chorus
---------

 FC
 You can't see tears in the rain
 Gm
no matter how hard you try
 FBb
You'll never see anything
 CF
only the rain in my eyes.
 C
You can't see tears in the rain
 Gm
so as we're sayin' goodbye
 FBb
Guess I'll be cryin' in vain
 CF
'cause you can't see tears in the rain.

2. Verse (same chords as 1st verse)
--------

The time has come
I'm letting go now
I put it all behind me and just turn the page.
And I'll make you believe that it don't matter
You'll never see it's all a charade. Oh woh

2. Chorus (same chords as 1st chorus)
---------

You can't see tears in the rain
no matter how hard you try
You'll never see anything
only the rain in my eyes.
You can't see tears in the rain
so as we're sayin' goodbye
Guess I'll be cryin' in vain
'cause you can't see tears in the rain.

 CDm
 Tears in the rain
 CBb
 oh no, oh woh.

Solo

Bridge
------

 G#FmBbD#
 And the rain comes down I don't wanna go
 G#FmBbD#
 I see the memories flash before my eyes like a ghost.
 GmD#F
 I fantasize that there's a glimmer of hope

 D#BbD#Bb
But it's over, you'll never be the same, oh

Final Chorus (2 times)
------------

 F#C#
 You can't see tears in the rain
 G#m
no matter how hard you try
 F#B
You'll never see anything
 C#F#
only the rain in my eyes.
 C#
You can't see tears in the rain
 G#m
so as we're sayin' goodbye
 F#B
Guess I'll be cryin' in vain
 C#F#
'cause you can't see tears in the rain.


A B Bb Bm C C# D D# Dm Dsus2 Em F F# F#m Fm G G# G#m Gm
variations - click chord images
Transpose chords:
Tuning:
Cool service:
View: Size:
A  A  A
Rating:
Layout:
  • Currently 3.5/5 Stars.
  • 1
  • 2
  • 3
  • 4
  • 5
 
Accuracy:
  • Currently 5/5 Stars.
  • 1
  • 2
  • 3
  • 4
  • 5
 
click stars to rate
Chordie recommends:
Learn to play guitar with video-based, online guitar lessons at JamPlay.com
Songbook:
Login to add this song to your songbook
Support the artist
Preview/buy this song
MSN Music
Why this non-profit ad?

 
login to add comments/video/corrections