"yes"; ?> Helene by Rock Voisine - guitar chords, guitar tabs and lyrics - chordie

Helene

Rock Voisine


helene ecrit par rock voisine
|----3------3--------6------6-------3-----3--| |------3---------------3--------------4------| |---------3----0---------3--------------3----| |-----------------3------------3-1-----------| |--------------------------------------------| |-3------------------------------------------|
|---6p5-----5------5--| |---------6------6----| |-------5------5------|x 5 |-3-3-----------------| |---------------------| |---------------------|
|-3---6---3---5--------| |-3---3---4---6--------| |-3---3---3---5--------| |-0---3---1---3--------|x 4 2ieme guitare |----------------------| |-3--------------------|
|----3------3--------6------6-------3-----3--| |------3---------------3--------------4------| |---------3----0---------3--------------3----| |-----------------3------------3-1-----------| |--------------------------------------------| |-3------------------------------------------|
|---6p5-----5------5--| |---------6------6----|
|-------5------5------|x 4 premiere guitare |-3-3-----------------| |---------------------| |---------------------|
|-6----6---| |-6----8---| |-7----8---| |-8----8---|x 3 |-8----6---| |-6--------|
|---3---1-------| |---4---1-------| |---5---2-------| |---5---3-------| |-5-3---3-------| |-------1-------|
|-6----6---| |-6----8---| |-7----8---| |-8----8---|x 3 |-8----6---| |-6--------|
|---3---1-------| |---4---1-------| |---5---2-------| |---5---3-------| |-5-3---3-------| |-------1-------|
steve..... pompom020366@hotmail.com pompom@sympatico.ca






























variations - click chord images
Transpose chords:
Tuning:
Cool service:
View: Size:
A  A  A
Rating:
Layout:
  • Currently 0/5 Stars.
  • 1
  • 2
  • 3
  • 4
  • 5
 
Accuracy:
  • Currently 2/5 Stars.
  • 1
  • 2
  • 3
  • 4
  • 5
 
click stars to rate
Chordie recommends:
Get acoustic guitar lessons and electric guitar lessons at JamPlay.com
Songbook:
Login to add this song to your songbook
Support the artist
Preview/buy this song
MSN Music
Why this non-profit ad?

 
login to add comments/video/corrections