A Song Is Not A Business Plan

Rocket Summer

E--x---x-x---x-x                  E--x---x-x-|

B--x---x-x---x-x B--x---x-x-|
G--4---4-3---4-4 G--4---4-4-|
D--4---4-4---4-4 X3 then..... D--4---4-4-|
A--x---x-x---x-x A--x---x-x-|
E--0---0-2---2-0 E--4---4-2-|
E--------------------------------------------------|
B--------------------------------------------------|
G---------------4------4---------------------------|
D--5-----2------4--X8--4--X8-------5-----2-----xx--|
A--5-X8--2-X8---2------x-----------5-X8--2-X6--xx--|
E--3-----0-------------4-----------3-----0-----xx--|

 BE
 I want to
 EG#
 that's a given but,
 G#
 I can't it imagine
 F#B
 the same way as you
 BE
 Oh you 
 E
 know I'll never do
 G#F#
 the things they do just to make it

For the "woahs" do the intro
same for the second verse

Bridge : "do you even know, what you're even saying..."

E-------------------------------------------------------------------|
B-------------------------------------------------------------------|
G---------------------4---------------------------------------------|
D--2-----4-----6------4--X8-----------------------------------------|
A--2--X8-4-X8--6--X8--2---------------------------------------------|
E--0-----2-----4----------------------------------------------------|


Then Chorus again

email me if ya got any questions or comments or anything :D

kxboges@aol.com

C YA!


B E F# G#
variations - click chord images
Transpose chords:
Tuning:
Cool service:
View: Size:
A  A  A
Rating:
Layout:
  • Currently 2.4/5 Stars.
  • 1
  • 2
  • 3
  • 4
  • 5
 
Accuracy:
  • Currently 3.4/5 Stars.
  • 1
  • 2
  • 3
  • 4
  • 5
 
click stars to rate
Chordie recommends:
Learn to play guitar with video-based, online guitar lessons at JamPlay.com
Songbook:
Login to add this song to your songbook
Support the artist
Preview/buy this song
MSN Music
Why this non-profit ad?

 
login to add comments/video/corrections