Chordie logo


A Song Is Not A Business Plan  Rocket Summer

E--x---x-x---x-x                  E--x---x-x-|


B--x---x-x---x-x                  B--x---x-x-|


G--4---4-3---4-4                  G--4---4-4-|

D--4---4-4---4-4 X3 then..... D--4---4-4-|
A--x---x-x---x-x A--x---x-x-|
E--0---0-2---2-0 E--4---4-2-|
E--------------------------------------------------|
B--------------------------------------------------|
G---------------4------4---------------------------|
D--5-----2------4--X8--4--X8-------5-----2-----xx--|
A--5-X8--2-X8---2------x-----------5-X8--2-X6--xx--|
E--3-----0-------------4-----------3-----0-----xx--|
[B]I want t[E]o
[E]that's a given b[G#]ut,
[G#]I can't it imagine
[F#]the same way as y[B]ou
[B]Oh you[E]
[E]know I'll never do
[G#]the things they do[F#] just to make it
For the "woahs" do the intro
same for the second verse


Bridge : "do you even know, what you're even saying..."

E-------------------------------------------------------------------|
B-------------------------------------------------------------------|
G---------------------4---------------------------------------------|
D--2-----4-----6------4--X8-----------------------------------------|
A--2--X8-4-X8--6--X8--2---------------------------------------------|
E--0-----2-----4----------------------------------------------------|


Then Chorus again

email me if ya got any questions or comments or anything :D

kxboges@aol.com

C YA!

Important: The song above is NOT stored on the Chordie server. The original song is hosted at www.guitaretab.com. Chordie works as a search engine and provides on-the-fly formatting. Chordie does not index songs against artists/composers will. To remove this song please click here.

Text color:
Chord color:
Chord grids: 
Font size:    
Page size: 

B E F# G#
variations - click chord images

Login - add to songbook

Transpose chords

Tuning

Rating click stars to rate

Layout
Accuracy

SHARE PAGE  




You need to log in to post comments