Chordie logo


Take Me Away   Roger McGuinn



-----------------------------------------------------------------------------
	        Take Me Away (solo) - Pink Slip (From "Freaky Friday")
-----------------------------------------------------------------------------

Tabbed by: DoubleBubbleTrouble5 with help from IronDan1
Tuning: Standard



Begin with a pickslide

e|-----------------------------------------------------7--------7-----------|
B|-----------------------------2---2-------------------10b------10br--p7----|
G|-----------------------------2---4br---2----------------------------------|
D|---4---4---4--2--0--4-----------------------------------------------------|
A|--------------------------------------------------------------------------|
E|--------------------------------------------------------------------------|

e|--------------------------------14-----14---14---14-----14-----14--14--14-|
B|-7---7---7---7---7--------------17b----17b--17b--17br---14-----14--14--14-|
G|-9b--9b--9b--9b--9br---7/14-----------------------------------------------|
D|--------------------------------------------------------------------------|
A|--------------------------------------------------------------------------|
E|--------------------------------------------------------------------------|

e|--14-----------14----------------12-12-12-12-12-12-12-12-13-13-13-13-13-13|
B|--14/12--------17br15-----15----------------------------------------------|
G|---------14-----------16--------------------------------------------------|
D|--------------------------------------------------------------------------|
A|--------------------------------------------------------------------------|
E|--------------------------------------------------------------------------|

e|-13-13---------9--9-------9--9------------------------9-----13----14------|
B|---------------9--9-------9--9---9---9---9-----9------12b---16b---17b-----|
G|----------11b--------11b---------11--10--11br--10-------------------------|
D|--------------------------------------------------------------------------|
A|--------------------------------------------------------------------------|
E|--------------------------------------------------------------------------|





| /  slide up
| \  slide down
| h  hammer-on
| p  pull-off
| ~  vibrato
| +  harmonic
| x  mute note
| b  whole step bend
| hb half step bend
| br bend and release
======================================================================== 



Important: The song above is NOT stored on the Chordie server. The original song is hosted at www.guitaretab.com. Chordie works as a search engine and provides on-the-fly formatting. Chordie does not index songs against artists/composers will. To remove this song please click here.

This song is displayed as text-only. Transposing and tuning is only available for chordpro-songs.

Login - add to songbook

Rating click stars to rate

Layout
Accuracy

SHARE PAGE  




You need to log in to post comments