How Can I Stop

Rolling Stones



E ------------------------------------------------------------|

B ------------------------------------------------------------|

G ----------------10--12/14*/12*--10--10h12--12/14*--14-------|

D ---------10-12----------------------------------------------|

A --10/12*----------------------------------------------------|

E ------------------------------------------------------------|

E -------------------------------------------------------------|

B -------------------------------------------------------------|

G ----------------10--12/14*/12*--10--10h12--10-10-------------|

D ---------10-12-----------------------------------------------|

A --10/12*-----------------------------------------------------|

E -------------------------------------------------------------|


 AD
      You offer me
 EA
      All your love and sympathy
 AD
      Sweet affection baby
 EA
      It's killing me
 AD
      Ah aha ah
 EA
      Ah aha ah
VERSE:
 AD
      Cause baby baby
 EA
      Can't you see
 AD
      How could I stop
 EA
      Once I start baby
CHORUS:
 EADE
      (How could I stop) How could I stop once I start
 EADE
      (How could I stop)   
 E
      Yeah yeah
 ADEA
      How could I stop once I start 
VERSE:
You look at me
But I don't see what you see
A reflection baby
Of what I want to be
I see your face
And I want to roll with it
Ah aha ah
Ah aha ah
CHORUS:
 EA
      But how could I stop
 DE
      Baby how could I stop
 EA
      How could I stop
 DE
      Stop it, stop it  
BREAK:
 EFGC
      If I could, I'd take you all the way
 CFGC
      Baby, baby listen what I say
 CF
      Ah aha ah
 GC
      Ah aha ah
 CF
      There's even some things
 GC
      That I just would not pay
*BREAK 2:
 CG
      'Cause how could I stop
 FG
      If I start babe
 CGF
      (How could I stop) How could I stop if I start
 G
      Start with you
 CG
      (How could I stop)
 FG
      If I start baby
 CG
      (How could I stop) How could I stop
 FGA
      If I start with you babe
INSTRUMENTAL: A E -- 4x's
VERSE:
It's to easy to lay here at your feet
I couldn't take the heat
There's somewhere else
Maybe you should go
Baby maybe baby just a further down the road
CHORUS:
How I could I stop
If I start with you baby
How could I stop
How could I stop
Once I start
You tell me baby
Once I've started with you
How could I stop
Once I start
CHORUS: -- VERSE: -- hold A CHORD for a while - CHORUS to FADE
any questions, comments or corrections e-mail me at:
P
 EACCCEEE
                                                                                                                                   D   O   N
______________________________________________________
Get Your Private, Free Email at http://www.hotmail.com
( Tab from: http://www.guitaretab.com/r/rolling-stones/16353.html )


A C D E F G
variations - click chord images
Transpose chords:
Tuning:
Cool service:
View: Size:
A  A  A
Rating:
Layout:
  • Currently 2.3/5 Stars.
  • 1
  • 2
  • 3
  • 4
  • 5
 
Accuracy:
  • Currently 3/5 Stars.
  • 1
  • 2
  • 3
  • 4
  • 5
 
click stars to rate
Chordie recommends:
Check out JamPlay.com for online video guitar lessons
Songbook:
Login to add this song to your songbook
Support the artist
Preview/buy this song
MSN Music
Why this non-profit ad?

 
login to add comments/video/corrections