Jumping Jack Flash

Rolling Stones

|-----------------------------------|

|*---------------------------------*|

|-----8--8--------------------------|

|-----9--9--------7-----7-------7---|

|*----9--9----7-9---7-9-----7-9----*|

|-----7--7--------------------------|


 BDAE
  But it's al----right     now,
 B
  in fact it's a gas....
 BDA
  But it's al----right
 EB
  Jumpin' Jack Flash, it's a gas gas gas!
That's the chord progression. If anyone knows the counter-melody played
during the chorus, please post it.
==============================================================================
The opening section to Brown Sugar is
 CGCF
|-------------------------|
|*---13--12----5-5--6-6--*|
|----12--12----5-5--5-5---|
|----14--12----5-5--7-7---|
|*-----------------------*|
|-------------------------|

repeat 4 times
 EbEb11EbCC11CAbBbFC
|-------------------|---------------|---------------------------|
|*--8---8-9---9--8--|--5--5-6--6-5--|--1--2-1-3-4--6--6-6-6-5--*|
|---8---8-10--10-8--|--5--5-7--7-5--|--1--3-1-3-5--5--5-5-5-5---|
|---8---8-8---9--8--|--5--5-5--5-5--|--1--1-1-3-3--7--7-7-7-5---|
|*------------------|---------------|--------------------------*|
|-------------------|---------------|---------------------------|

repeat 2 times
Enjoy...
-- Scott @Brandeis























A Ab B Bb C C11 D E Eb Eb11 F G
variations - click chord images
Transpose chords:
Tuning:
Cool service:
View: Size:
A  A  A
Rating:
Layout:
  • Currently 2.6/5 Stars.
  • 1
  • 2
  • 3
  • 4
  • 5
 
Accuracy:
  • Currently 2.4/5 Stars.
  • 1
  • 2
  • 3
  • 4
  • 5
 
click stars to rate
Chordie recommends:
Learn how to play guitar at JamPlay.com
Songbook:
Login to add this song to your songbook
Support the artist
Preview/buy this song
MSN Music
Why this non-profit ad?

 
login to add comments/video/corrections