Guitar Tabs, Chords and Lyrics
Major upgrade!! After one year development the new version of Chordie is now online! Please give feedback.


Sway   The Rolling Stones

 
 --------------------------------------------------------------------------|
 --------------6--6--6--6-----3--3--3--3--3--3-----------------------------|
 -7--10--7--5--5--5--5--5--0--3--3--3--3--3--3--0--0--0--------------------|
 -7--10--7--5--7--7--7--7--0--3--3--3--3--3--3--0--0--0--------------------|
 -7--10--7--5--5--5--5--5--0--3--3--3--3--3--3--0--0--0--------------------|

 


 


 Fig. 2a


 


 

 
 --------------------------------------------------------------------------|
 --------------------------------------------------------------------------|
 -10--10-10----5--5-5----3--3--3--3--3--3--0--3--0-------------------------|
 -10--10-10-0--5--5-5-0--3--3--3--3--3--3--0--3--0-------------------------|
 -10--10-10-0--5--5-5-0--3--3--3--3--3--3--0--3--0-------------------------|

 


 


 Fig. 3a


 


 

 
 --------------------------------------------------------------------------|
 --------------------------------------------------------------------------|
 -5--5--5--5--5--5--5--5--0--3--3--3--3--3--3--3--3--0---------------------|
 -5--5--5--5--5--5--5--5--0--3--3--3--3--3--3--3--3--0---------------------|
 -5--5--5--5--5--5--5--5--0--3--3--3--3--3--3--3--3--0---------------------|

 


 


 [End] [1]  


 

 
 --------------------------------------------------------------------------|
 --------------------------------------------------------------------------|
 -3--0--3--3--3--3--3------------------------------------------------------|
 -3--0--3--3--3--3--3------------------------------------------------------|
 -3--0--3--3--3--3--3------------------------------------------------------|

 


 


 Standard Tuning Guitar:


 


 Fig. 2b


 


 

 
 1-------6-------3---------3---------------------|
 1--5----6-------3---------3---------------------|
 x--5-5--x-------x---------5---------------------|
 3--5----8-------3--3--3---5---------------------|
 3--3----8-------3--3--3---3---------------------|
 1-------6-------1--1--1-------------------------|

 


 


 Fig. 2c


 


 

 
 ---------------------------------------------|
 ---------------------------------------------|
 -----5---3-----------------------------------|
 -3---5---3-----------------------------------|
 -3---3---1-----------------------------------|
 -1-------------------------------------------|

 


 


 Fill 1


 


 

 
 -13------------------------------------------------------|
 -13------------------------------------------------------|
 ---------------------------------------------------------|
 ---------------------------------------------------------|
 ---------------------------------------------------------|
 ---------------------------------------------------------|

 


 


 


 Fig. 3b


 


 

 
 -------------------------------------------------------------|
 ----------------------------3/5~--------5----5\3--3~---------|
 -----------------------------------3/5-----5-----------------|
 -10-----------8---------3------------------------------------|
 -10-----------8----------------------------------------------|
 -8--------0---6----------------------------------------------|
 ----------------------------------------------------------------------------|
 -18----16b-13--11----13~~---13--16b--13-11----------------------------------|
 ------------------12-----------------------10b--------12p10-----8--10/12----|
 -----------------------------------------------10------------10-------------|
 ----------------------------------------------------------------------------|
 ----------------------------------------------------------------------------|
 -----------------------------11---------------------------------------------|
 -11~~----8--------------11b-----11b--11--8h11p8-----------------------------|
 ------------11--10--8---------------------------10--10--10--10--10/12--12---|
 ----------------------------------------------------------------------------|
 ----------------------------------------------------------------------------|
 ----------------------------------------------------------------------------|
 ----------------------------------------------------------------------------|
 ----------------------------------------------------------------------------|
 -12--12/15--12--15--12h15p12------------------------------------------------|
 ------------------------------15--14-15-14----------------------------------|
 -------------------------------------------15~------------------------------|
 ----------------------------------------------------------------------------|


Important: The song above is NOT stored on the Chordie server. The original song is hosted at www.guitaretab.com. Chordie works as a search engine and provides on-the-fly formatting. Chordie does not index songs against artists'/composers' will. To remove this song please click here.

This song is displayed as text-only. Transposing and tuning is only available for chordpro-songs.
Rate #0 of 7 versions

Jango Player

Login - add to songbook

SHARE PAGE  




You need to log in to post comments