Chordie logo

Winter   Rolling Stones



Band: The Rolling Stones
Song: Winter
Album: Goats Head Soup
Year: 1973
Guitarists: Mick Jagger, Mick Taylor
Tuning: Standard

This song is a perfect example of Mick Taylor's melodic lead style. Taylor lays down all 
the leads while
Jagger holds down a simple but effective rhythm. Some of the parts were hard to hear. 
thing is pretty much spot on. It's
at least the best I could do with it. If not exactly PERFECT, you'll have the jist of 
of the leads, anyway. Jagger
holds down the same chord patterns the whole song - very simple.

Listen to song for timing.

Jagger

Intro:

(play this pattern for verses as well)

-0---0---------------------------|
-5---3--------2------------------|
-2---2--------2------------------|
-0---0--------2------------------|
--------------0------------------|
---------------------------------|

then

(play this at the end of the verses as well (except verse 1). You'll hear it
if you listen for it)

-0---------2--------0-----------------------|
-0---------3--------0-----------------------|
-1---------2--------1-----------------------|
-2---------0--------2-----------------------|
-2------------------2-----------------------|
-0------------------0-----------------------|


Chorus

-2-------0---------------|
-3-------0---------------|
-2-------1---------------|
-0-------2---------------| x4
---------2---------------|
---------0---------------|

Taylor

Intro:

-------------------------------------------------------------------------------------------------------------|
-17-----17--------------------------------------------------17-----------------------------------------------|
-16h18--16---14h16-14--14-----14---------------7---9--------16h18---14/16\14---14-----14---------------------|
-----------------------14h16--14------------0----------------------------------14h16--14---------------------|
-----------------------------------------------------------------------------------------16\-----------------|
-------------------------------------------------------------------------------------------------------------|

-------------------------------------------------------------------------------------------------------------|
------------------17-----17-------------------------------------9--------7--------7/9-------9--9h10p9--9-----|
----7---9---------16h18--16--14h16p14------14-----14--------------9--------7------7/9-------9--9-------9-----|
-0------------------------------------16---14h16--14---------------------------------------------------------|
-----------------------------------------------------16------------------------------------------------------|
-------------------------------------------------------------------------------------------------------------|


Verse 1

-------------------------------------------------------------------------------------------------------------|
-17------17---------------------------------17---------------------------------------------------------------|
-16h18---16---14h16-14--14------------------16h18--16/14--14h16-14--14------14-----14------------------------|
------------------------14h16--14-----------------------------------14h16---14h16--14------------------------|
--------------------------------------------------------------------------------------16p14------------------|
-------------------------------------------------------------------------------------------------------------|


-------------------------------------------------------------------------------------------------------------|
-17-----17------------------------------------------------------17-------------------------------------------|
-16h18--16---14h16-14--14-----14-------------------7--9---------16h18--16--14/16--14----14-------------------|
-----------------------14h16--14-----------------------------------------------------16--------14h16-14------|
--------------------------------------------------------------------------------------------------------16---|
-------------------------------------------------------------------------------------------------------------|

---------------------------------------------------|
---------------------------------------------------|
-18p16----14---------------------------------------|
----------14h16p14---------------------------------|
--------------------16--14h16-14-------------------|
---------------------------------17----------------|


Chorus 1

------2-----2----2---2----------4---4h5p4-----------2----2----2---2-----------4----4h5--4h5p4------------2---|
-------------------------------------------------------------------------------------------------------------|
--/2----------2----2---2---2/4--------------1--1/2---------2----2----2---2/4-------------------------/2------|
-------------------------------------------------------------------------------------------------------------|
-------------------------------------------------------------------------------------------------------------|
-------------------------------------------------------------------------------------------------------------|

-----4p2------4p2---4p2--------4---5p4---5p4----5p4-------2--2--------4-----------5-----------7--------9-9---|
-------------------------------------------------------------------------------------------------------------|
--2--------2--------------2/4----------4-----4---------2---------2/4------4--4/6------6--6/7-----7--9--------|
-------------------------------------------------------------------------------------------------------------|
-------------------------------------------------------------------------------------------------------------|
-------------------------------------------------------------------------------------------------------------|


Verse 2

-------------------------------------------------------------------------------------------------------------|
-17-----17---------------------------------------------------17p19--17---------------------------------------|
-16h18--16--14h16-14------------------------------------------------16---14h16-14-----14-----14--------------|
---------------------16--14h16-14---------------12/14-----------------------------16--14h16--14--------------|
----------------------------------16---------12---(12)------------------------------------------16-----------|
-------------------------------------------------------------------------------------------------------------|

-------------------------------------------------|
-17----------------------------------------------|
-16h16--16--14/16--14----------------------------|
----------------------16--14/16------------------|
-------------------------------------------------|
-------------------------------------------------|

Chorus 2

(Guitar doesn't come in till about halfway through chorus)
----2----2----2/4--4-4---5p4-----------------------2-2----------4-------5p4----5/7---5p4------------|
-----------------------------5-----5/7\5------------------------------------5------------5/7\5------|
-2-----2---2-------------------4--------------1/2----------2/4-----4---------------------------4----|
----------------------------------------------------------------------------------------------------|
----------------------------------------------------------------------------------------------------|
----------------------------------------------------------------------------------------------------|


Solo
(Play verse/intro chords behind this)

----------------------------------------------------------------------------------------------------------|
-------10--12b---12br--10-----------------------------10--12-12b~----12br-10------------------------------|
-9h11----------------------11---9br-------------9h11-------------------------11---9/11/9\6/9\6------------|
------------------------------------9/11~-----------------------------------------------------------------|
----------------------------------------------------------------------------------------------------------|
----------------------------------------------------------------------------------------------------------|

----------------------------------------------------------------------------------------------------------|
-------------------------------------------------------------------5~/7---10-7h10p7\5---------------------|
-6\4\2/4\2/9~-----7p6-7p6-----------------------------2--4h6p4-------------------------6/9\6--4/6\4-2-2~--|
---------------------------7-------------------2-4-2------------7-----------------------------------------|
-----------------------------7-5-4---------/4-------------------------------------------------------------|
-----------------------------------5~~--------------------------------------------------------------------|

----------------------------------------------------------------------------------------------------------|
----------------------------------------------------------------------------------------------------------|
-----2-4b---4br2-------------------2-4b~~--4br-2-----------------------2h4br/7b~~----7p6-7p6--------------|
-2h4-------------4--2/4\2/7~---2-4---------------4--2/4\2/7\4\2----2h4-----------------------7------------|
-----------------------------------------------------------------------------------------------7-5-4------|
-----------------------------------------------------------------------------------------------------5~---|

----------------------------------------------------------------------------------------------------------|
----------------------------------------------------------------------------------------------------------|
-----------2-4-4/6\4--9-6--11-9--14-11--16-14-16b-16-14--16p14----14~----------14--16b~~--16br-14---------|
------2-4-----------------------------------------------------16--------14h16---------------------16------|
-2/4------------------------------------------------------------------------------------------------------|
----------------------------------------------------------------------------------------------------------|

(This continues in the background after Jagger's vocals come back)
-------------------------------------------------------------------------------------------------------------------|
-------------------------------------------------------------------------------------------------------------------|
--------------7p6--------------------------2~--------------14----14-------------14----14---------------------------|
-14/16--14--------7--------------------2h4-------------14--14h16-14-------------14h16-14---------------------------|
--------------------7\5\4----------2/4-----------14h16---------------16p14\12-------------16p14\12-------12-12~----|
---------------------------5~----------------------------------------------------------------------12/14-----------|

-------------------------------------------------------------------------------------------------------------------|
-17--------------------------------------------------------------17------------------------------------------------|
-16h18--16--14h16p14---------------------------------------------16h18--16-14--14h16-14----------------------------|
---------------------16--14p16p14---------------------12--14----------------------------16--14h16-14---------------|
----------------------------------16--14h16p14-------------------------------------------------------16------------|
-----------------------------------------------17------------------------------------------------------------------|


Keep playing this, maybe with slight variations, to end of song
-------------------------------------------------------|
----------17-------------------------------------------|
----------16h18--16--14--14h16-14----------------------|
-12--14---------------------------16--14h16-14\12------|
-------------------------------------------------------|
-------------------------------------------------------|



Important: The song above is NOT stored on the Chordie server. The original song is hosted at www.guitaretab.com. Chordie works as a search engine and provides on-the-fly formatting. Chordie does not index songs against artists/composers will. To remove this song please click here.

This song is displayed as text-only. Transposing and tuning is only available for chordpro-songs.

Login - add to songbook

Rating click stars to rate

Layout
Accuracy

SHARE PAGE  

You need to log in to post comments