Chordie logo

You Gotta Move  Rolling Stones




















E ------------|------------|---------------------------------------|
B ------------|------------|---------------------------------------|
G ----9-10-12-|-12-12----9-|-12-12-12-12--10-10-10-10--12-10-------|
D -10---------|-------10---|---------------------------------10-10-|
A ------------|------------|---------------------------------------|
E ------------|------------|---------------------------------------|

SLIDE CONTINUED:
E -------------|---------------------|-----------------------------|
B -------------|---------------------|-----------------------------|
G -------------|---------------------|-----------------------------|
D -----8-10-14-|--14-10--------------|----10----10-----------------|
A -10----------|---------10-10-10-10-|-10----13--------------------|
E -------------|---------------------|-----------------------------|

*VERSE (TYPE 1): NOTE: SAME CHORDS PLAYED
C THROUGH THE ENTIRE
You gotta move SONG.
You gotta move
                You  gotta m[F]ove, child
                You gotta mo[C]ve
                Oh, when the Lord gets r[G]eady
                You gotta m[C]ove
*VERSE (TYPE 1):
You may be high
You may be low
You may be rich, child
You may be poor
But when the Lord gets ready
You gotta move
**VERSE (TYPE 2):
Ah-ah-ah-ah
Uh, huh, huh, huh.......(cont.)
**SLIDE GUITAR ON THIS PART CHANGES TO:
E ----10-11-13-|-13-13----10-|-13-13-13-13--11-11-11-11--13-11-------|
B -11----------|-------11----|---------------------------------11-11-|
G -------------|-------------|---------------------------------------|
D -------------|-------------|---------------------------------------|
A -------------|-------------|---------------------------------------|
E -------------|-------------|---------------------------------------|

SLIDE CONTINUED:
E -------------|----------------------|------------------------------|
B ----9-11-15--|--15-11---------------|-----11----11-----------------|
G -10----------|---------10-10-10-10--|--10----13--------------------|
D -------------|----------------------|------------------------------|
A -------------|----------------------|------------------------------|
E -------------|----------------------|------------------------------|

NOW GO BACK TO *VERSE (TYPE 1) SLIDE GUITAR
*VERSE (TYPE 1):
You see that woman
Who walks the street
You see that police
Upon his beat
But when the Lord gets ready
You got to move
*VERSE (TYPE 1):
Ah-ah-ah-ah
Uh, huh, huh ,huh.......(cont.)
OUTRO: C
You gotta move
any questions, comments or corrections e-mail to:
guitarzan7@hotmail.com
P
                           [E]                                    [A]                                  [C]  [C]  [C]                              D[E]   [E]O  [E] N
______________________________________________________
Get Your Private, Free Email at http://www.hotmail.com

Important: The song above is NOT stored on the Chordie server. The original song is hosted at www.guitaretab.com. Chordie works as a search engine and provides on-the-fly formatting. Chordie does not index songs against artists/composers will. To remove this song please click here.

A C E F G
variations - click chord images

Login - add to songbook

Transpose chords

Tuning

Rating click stars to rate

Layout
Accuracy

SHARE PAGE  

You need to log in to post comments