Guitar Tabs, Chords and Lyrics


Dont Stop  Rolling Stones

A D G/D E?
[DGDGBD]022222  [DGDGBD]077777   [DGDGBD]079787  [DGDGBD]099999
Intro
A D G/D 2 times
[A]Well you bit my lip and drew first blood
And wore my [D]cold, cold he[G/D]art
[A]And your wrote your name right on my back
Boy[D] your nails were sh[G/D]arp
[A]Don't stop
[D]Honey don't st[G/D]op
[A]Don't stop
[D]Baby don't st[G/D]op
[A]Well I love your screams of passion
[D]In the long hot summer ni[G/D]ght
[A]But you pepper me with poison darts
[D]And twisted in your knif[G/D]e
[A]Don't stop
[D]Honey don't s[G/D]top
[A]Don't stop
[D]Baby don't s[G/D]top
[E]Well the only thing I ask of you
[D]Is to hand me back some pri[G/D]de
[E]Don't you dump me on some dusty street
[D]And hang me out to [G/D]dry
[A]Don't stop
[D]Honey don't st[G/D]op
[A]Baby don't stop
[D]Baby don't s[G/D]top
Honey
Then a little solo 2 times
|--------------------------------------|----------------------------|
|--------------------------------------|----------------------------|
|----9---11-11-11-9------------9-11-11 | 11-9----9-9-9--------9-----|
|-11---------------- ----11-9-11-------|-------11------11-9-11-11-9-|
|--------------------------------------|---------- -----------------|
|--------------------------------------|----------------------------|

[E]I'm losing you
I know your heart is mile[D]s away
|---------------------|
|-14--12------12------|
|----------14---14-11-|
|---------------------|
|---------------------|
|---------------------|

[E]There's a whisper there where once there was a st[D]orm
(and the something like this)
|-----------------------|
|-14--12------12--------|
|----------14---14-11-11|
|-----------------------|
|-----------------------|
|-----------------------|

[E]And all that's left is that image that I'll find a [D]way
|---------------------|
|-14--12------12------|
|----------14---14-11-|
|---------------------|
|---------------------|
|---------------------|                 

A[E]nd some memories have tattered as they'[D]ve torn
[A]Don't stop
[D]Don't st[G/D]op
Baby don't stop
Baby don't stop
Honey baby don't stop
Honey honey
Baby don't stop
Baby don't stop
Come on honey honey don't stop
Well baby
Baby don't stop
Baby baby don't stop
My honey don't stop
Don't ya stop
Don't stop...

Important: The song above is NOT stored on the Chordie server. The original song is hosted at www.guitaretab.com. Chordie works as a search engine and provides on-the-fly formatting. Chordie does not index songs against artists/composers will. To remove this song please click here.

Text color:
Chord color:
Chord grids: 
Font size:    
Page size: 

A D E G/D
variations - click chord images

Login - add to songbook

Transpose chords

Tuning

Rating click stars to rate

Layout
Accuracy

SHARE PAGE  




You need to log in to post comments

natebernstein (report)

I tried to play the G/D at fourth fret and it does not sound right- the other notes sound ok. is that correct ?
thanks, natebernstein@netzero.net