"yes"; ?> Talking In Your Sleep by Romantics - guitar chords, guitar tabs and lyrics - chordie

Talking In Your Sleep

Romantics

 DmBbadd6CDm
e|--5--|--5-----5--|--3---3--|--3---3--|--5--|
B|--6--|--6-----6--|--3---3--|--5---5--|--6--|
G|--7--|--7-----7--|--3---3--|--5---5--|--7--|
D|-----|-----------|---------|---------|-----|
A|-----|-----------|---------|---------|-----|
E|-----|-----------|---------|---------|-----|


This is played throughout the verses and the chorus

(although during verse one this variation is played):

e|-----|-----------|--3---3--|--3---3--|--5--|
B|-----|-----------|--3---3--|--5---5--|--6--|
G|-----|-----------|--3---3--|--5---5--|--7--|
D|-----|-----------|---------|---------|-----|
A|-----|-----------|---------|---------|-----|
E|-----|-----------|---------|---------|-----|


During the prechorus, play:

 Bbadd9
e|--------8--|-----------|--------8--|-----------|--------8--|
B|-----6-----|-----------|-----6-----|-----------|-----6-----|
G|--7--------|-----------|--7--------|-----------|--7--------|
D|-----------|-----------|-----------|-----------|-----------|
A|-----------|-----------|-----------|-----------|-----------|
E|-----------|-----------|-----------|-----------|-----------|


 Bbadd11
e|--------8--|--------8--|--------10-|
B|-----6-----|-----6-----|-----6-----|
G|--7--------|--7--------|--7--------|
D|-----------|-----------|-----------|
A|-----------|-----------|-----------|
E|-----------|-----------|-----------|


Then go back to Riff one for the chorus.

::::::::::::::::::::::::::::::::::::::::::::::::

Guitar two:

Guitar two has two parts. One is this (played during intro and chorus)

Riff A

e|-----------------|-----------------|-----------------|-----------------|
B|-5-5-5-6-6-6-6-6-|-5-5-5-6-6-6-6-6-|-6-6-6-6-5-5-5-5-|-5-5-5-6-6-6-6-6-|
G|-5-5-5-5-5-5-5-5-|-5-5-5-5-5-5-5-5-|-5-5-5-5-5-5-5-5-|-5-5-5-5-5-5-5-5-|
D|-----------------|-----------------|-----------------|-----------------|
A|-----------------|-----------------|-----------------|-----------------|
E|-----------------|-----------------|-----------------|-----------------|


During the prechorus, play the following barre chords, two measures each.

 DmCGBbC

::::::::::::::::::::::::::::::::::::::::::::::::

::::::::::::::::::::::::::::::::::::::::::::::::

Here are the lyrics:

Verse One:

When you close your eyes
And go to sleep
And it's down to the sound
Of a heartbeat
I can hear the things
That you're dreamin' about
When you open up your heart
And the truth comes out

Pre Chorus:

You tell me that you want me
You tell me that you need me
You tell me that you love me
And I know that I'm right
'Cause I hear it in the night

Chorus:

I hear the secrets that you keep
When you're talking in your sleep
I hear the secrets that you keep
When you're talking in your sleep

Verse Two:

When I hold you in my arms at night
Don't you know you're sleeping in the spotlight
And all your dreams that you keep inside
You're telling me the secrets
That you just can't hide

Pre Chorus:

You tell me that you want me
You tell me that you need me
You tell me that you love me
And I know that I'm right
'Cause I hear it in the night

Chorus:

I hear the secrets that you keep
When you're talking in your sleep
I hear the secrets that you keep
When you're talking in your sleep
I hear the secrets that you keep
When you're talking in your sleep
I hear the secrets that you keep
When you're talking in your sleep

Verse Three:

When you close your eyes
And you fall asleep
Everything about you is a mystery

Pre Chorus:

You tell me that you want me
You tell me that you need me
You tell me that you love me
And I know that I'm right
'Cause I hear it in the night

Chorus fade to end


Bb Bbadd11 Bbadd6 Bbadd9 C Dm G
variations - click chord images
Transpose chords:
Tuning:
Cool service:
View: Size:
A  A  A
Rating:
Layout:
  • Currently 3.2/5 Stars.
  • 1
  • 2
  • 3
  • 4
  • 5
 
Accuracy:
  • Currently 3.2/5 Stars.
  • 1
  • 2
  • 3
  • 4
  • 5
 
click stars to rate
Chordie recommends:
Get acoustic guitar lessons and electric guitar lessons at JamPlay.com
Songbook:
Login to add this song to your songbook
Support the artist
Preview/buy this song
MSN Music
Why this non-profit ad?

 
login to add comments/video/corrections