Guitar Tabs, Chords and Lyrics


April After All  Ron Sexsmith



2/4 [A], . , .   [A/G], . , .   [F#7], . , .   [G], . , .
||----------|---------|---------|---------||
||--2---0-3-|-2---0-2-|---------|-0--0----||
||----------|---------|-2-----2-|---2-0---||
||----2-----|---2-----|-----2-2-|-------0-||
||--0-------|---------|---------|---------||
||----------|-3---3---|-2-------|-3-------||



VERSE 1: (simple picking of chords)
A(x0x22x) A/G#(4x2x20)
It's really coming down
C#m(x4x120) D(xx023x)
Raining cats and hounds
D/F#(2x023x) A(x02x2x)
It's falling on parades
Bm7(x242xx) E(02x10x)
And on the plans we've made
A(x02x2x) A/G#(4x2x20)
But there'll be other days
C#m(x4x120) D(xx023x)
And things will turn our way
D/F#(2x02xx) A(x0222x)
The rain has got to fall
E(02x10x)
It's April after all


REPEAT INTRO


VERSE 2:
Even the longest night
Will lead you to daylight
It's the way May leads to June
And it's how I've come to you
The world goes spinning round
Life goes up and down
And rain is bound to fall
It's April after all


SOLO:
   [A], . , .   [A/G], . , .   [F#7], . , .   [G], . , .
||---------|---------|-------0-|---------|
||-2---0-3-|-2---0-2-|---------|-0-----1-|
||---------|---------|-2-----2-|-----2---|
||---2-----|---2-----|---2-2---|---0-----|
||-0-------|---------|---------|---------|
||---------|-3---3---|-2-------|-3---3---|


  [G/F], . , .   [Em], . , .   [Fmaj7], . , .   , . , .
|---------|---------|---------|---------||
|-0-----0-|---------|---------|-0---2---||
|-----2---|-0-----0-|-----2---|-0-------||
|---------|-----2---|-2---3---|---------||
|---------|---------|---------|---------||
|-1---1---|-0-------|-1-------|---------||



VERSE 3:
There'll be other days
Darling come what may
The rain has got to fall
E(02x10x) F#m(2xx22x) A/G#(4xx22x)
It's April after all
D/F#(2x02xx) A(x0222x)
Tears are bound to fall
E(02x10x)
It's April after all


CODA:
   [A], . , .   [A/G], . , .   [F#7], . , .   [G], . , .
||---------|---------|---------|---------|
||-2---0-3-|-2---0-2-|---------|-0--0----|
||---------|---------|-2-----2-|---2-0---|
||---2-----|---2-----|---2-2-2-|-------0-|
||-0-------|---------|-----4---|---------|
||---------|-3---3---|-2-------|-3-------|


  [G/F], . , .   [G], . , .
|---------|---------||
|-0--0----|-0-------||
|---2-0---|-0-------||
|---------|-0-------||
|-------3-|-2-------||
|-1-------|-3-------||
--------------------------------

John Kean
keanj@agresearch.cri.nz
--------------------------------				


Important: The song above is NOT stored on the Chordie server. The original song is hosted at www.guitaretab.com. Chordie works as a search engine and provides on-the-fly formatting. Chordie does not index songs against artists'/composers' will. To remove this song please click here.

Text color:
Chord color:
Chord grids: 
Font size:    
Page size: 

A A/G Em F#7 Fmaj7 G G/F
variations - click chord images

Login - add to songbook

Transpose chords

Tuning

Rating click stars to rate

Layout
Accuracy

SHARE PAGE  




You need to log in to post comments