Guitar Tabs, Chords and Lyrics


Daisy Duke  Rooney



-14-12----9-7--7----9-7-----|

-----------------10-----10--|
----------------------------|
----------------------------|
----------------------------|
----------------------------|
[A]    [E]    [B]    [C#]    [F]    [F#]                                                                 
------------------------|
------------------------|
---------4---6----------|
-7---2---4---6---3---4--|
-7---2---2---4---3---4--|
-5---0-----------1---2--|

Verse 1

[A]I wanna know[E]
[B]All theres to [E]know about you
[A]I want you to know[E]
[B]Nothin a[E]bout me although

Prechorus

[F#]Ill give you a taste, when you
[A]think that you know me. Ill
[B]blow you away. So baby
[C#]bow down daisy duke

Chorus

[F#]You dont [B]know me so [E]well, I think you
[A]know that now
[F#]Im un[B]breakable [E]theres no need for
[A]Fragile stickers
[F#]Your too [B]young for [E]me, but I can
[A]keep a secret
[F#]Im in [B]total con[E]trol of the
[A]Situation
[C#]Bow down daisy duke [A]
(While guitar1 plays "A" guitar2 plays this)
------------------------------------------------------------------------------|
------------------------------------------------------------------------------|
-6-9p6-9p6-9-6----------------------------------------------------------------|
------------------------------------------------------------------------------|
------------------------------------------------------------------------------|
------------------------------------------------------------------------------|


Verse 2

[A]Sit on my couch[E]
[B]Snuggle with [E]me though the whole night
[A]I wont bite, [E]baby
[B]Ill be good to [E]you in the mornin

Pre chorus

[F#]Dont you say no to me
[A]Baby big mistake
[B]Ill throw you away, so baby
[C#]bow down daisy duke

Chorus


Solo 1
-----------------------------------------------2-7-5--------------------------|
---------------------------------------------2-------5h6h7--------------------|
--2----------------2-----2-4/6-4h6p4-----2h4---------------6v-7-7/9-----2-----|
----4-2-4v---4-2-4---4-2-------------2h4------------------------------2---2---|
------------------------------------------------------------------------------|
------------------------------------------------------------------------------|
------------------------------------------------------------------------------|
------------------------------------------------------------------------------|
-2\1---------2-----2-4-4b---4-2-4-6\4/6---------------------------------------|
-----2---2-4---2h4----------------------6\4/6-0-2-0---------------------------|
-------4--------------------------------------------4-2-0---------------------|
----------------------------------------------------------2-4-2---------------|


Bridge

[F#]I much too [B]rough with
[E]The way I [A]phrase things[E]  [F]  [F#]
[F#]Im sorry for [B]cuffin
[E]You to my [A]bath tub[E]  [F]  [F#]

Solo 2
------------------------------------------------------------------------------|
------------------------------------------------------------------------------|
--2----------------2-----2-4/6-2---------2-4-4/6-6-6-6-6---6-6-6-6-6----------|
----4-2-4v---4-2-4---4-2---------4-2-4-4--------------------------------------|
------------------------------------------------------------------------------|
------------------------------------------------------------------------------|


Chorus

Thats it

Important: The song above is NOT stored on the Chordie server. The original song is hosted at www.guitaretab.com. Chordie works as a search engine and provides on-the-fly formatting. Chordie does not index songs against artists/composers will. To remove this song please click here.

Text color:
Chord color:
Chord grids: 
Font size:    
Page size: 

A B C# E F F#
variations - click chord images

Login - add to songbook

Transpose chords

Tuning

Rating click stars to rate

Layout
Accuracy

SHARE PAGE  




You need to log in to post comments