Guitar Tabs, Chords and Lyrics


You Got Me   Roots


e|-------------------------------------------------------------------------|








B|-----3-2-3----3-2-3---3-2-3----3-2-3---3-2-3----3-2-3---3-2-3---3-2-3----|








G|-------------------------------------------------------------------------|



D|-------------------------------------------------------------------------|



A|---2----------------1----------------------------------------------------|



E|-------------------------------------0----------------3-------2----------|



e|----------0----------------0----------------0----------------------------|



B|------3-3---3-3-3------3-3---3-3-3------3-3---3-3-3-----3-3-----3-3-3----|



G|-------4-4---4-4-4------4-4---4-4-4------4-4---4-4-4-----4-4-----4-4-4---|



D|------------------4----------------4----------------4-----------------4--|



A|---2----------------1----------------------------------------------------|



E|-------------------------------------0----------------3-------2----------|



Important: The song above is NOT stored on the Chordie server. The original song is hosted at www.guitaretab.com. Chordie works as a search engine and provides on-the-fly formatting. Chordie does not index songs against artists'/composers' will. To remove this song please click here.

This song is displayed as text-only. Transposing and tuning is only available for chordpro-songs.

Login - add to songbook

Rating click stars to rate

Layout
Accuracy

SHARE PAGE  




You need to log in to post comments