"yes"; ?> Angel Baby by Rosie and The Originals - guitar chords, guitar tabs and lyrics - chordie
e-----------------9------------8-----------11--8-----|

B--------------9------------8-----------8---------8--|
G----------10------------9-----------9---------------|
D------11------------10------------------------------|
A----------------------------------------------------|
E---------------------------------8------------------|
e-----------8--5----------------13--8---------------------------|
B--------5--------5---------10---------10---------8--8----------|
G-----5-----------------10---------------------7--------7-------|
D--------------------0-------------------------------------9----|
A------------------------------------------10-------------------|
E--5------------------------------------------------------------|
e-----------3-----------------5-----------------5-----------------3--------|
B--------5-----5-----------5-----5-----------6-----6-----------6-----6-----|
G-----5-----------5-----5-----------5-----5-----------5-----4-----------4--|
D--------------------------------------------------------5-----------------|
A--3-----------------------------------8-----------------------------------|
E--------------------5-----------------------------------------------------|

 CAmFG7
 It's just like heaven being here with you

 CAmFG7
 You're like an angel, too good to be true

 CAmFG7
 But after all, I love you, I do

 CAmFG7
 Angel Baby, my Angel Baby

 CAmFG7
 When you are near me my heart skips a beat

 CAmFG7
 I can hardly stand on my own two feet

 CAmFG7
 Because I love you, I love you, I do

 CAmFG7
 Angel Baby, my Angel Baby

 CAmFG7
 Ooh ooh I love you, ooh ooh I do

 CAmFG7
 No one could love you like I do

 CAmFG7
 ooh ooh ooh ooh ooh ooh, ooh ooh ooh

 CAmFG7
 Please never leave me blue and alone

 CAmFG7
 If you ever go, I'm sure you'll come back  home

 CAmFG7
 Because I love you, I love you, I do

 CAmFG7
 Angel Baby, my Angel Baby

 CAmFG7
 It's just like heaven being with you dear

 CAmFG7
 I could never stay, away without you near

 CAmFG7
 Because I love you, I love you I do

 CAmFG7
 Angel Baby, my Angel Baby

 CAmFG7
 Ooh ooh I love you, ooh ooh I do

 CAmFG7
 No one could love you like I do

 CAmFG7
 ooh ooh ooh ooh ooh ooh, ooh ooh ooh

 CAmFG7
 ooh ooh ooh, ooh ooh ooh

I figured UG needed this song so I posted it up. It's pretty easy because you play the
chords over and over. Hope I made it easy for you guys to read. If you have questions or
send them to: ogjasmin@aol.com


Corrected by foxmoore2. View original
Am C F G7
variations - click chord images
Transpose chords:
Tuning:
Cool service:
View: Size:
A  A  A
Rating:
Layout:
  • Currently 3.3/5 Stars.
  • 1
  • 2
  • 3
  • 4
  • 5
 
Accuracy:
  • Currently 3.2/5 Stars.
  • 1
  • 2
  • 3
  • 4
  • 5
 
click stars to rate
Chordie recommends:
Learn to play this song & others via video guitar lessons at JamPlay.com
Songbook:
Login to add this song to your songbook
Support the artist
Preview/buy this song
MSN Music
Why this non-profit ad?

 
login to add comments/video/corrections