The Rain

Roxette

 -----------------


 6/2/1995

Basically...
For the intro and verses just play C and G
Its a little more complicated than that but
not much.

I was raised the northern way
and my farther had a northern name,
I did my crying out in the pouring rain.
And a season turned into another one,
I found a heart bright like the morning sun.
He touched my lips, so softly,
with his fingertips.

 CC
 I've kept the rain falling down on me
 FG
 all the time, all the time.
 CC
 I've kept the rain falling down on me
 FG
 all the time, all the time.

Solo break:

 e|------------------------------------|
 B|-12-12-12---12-12-12-13-12-10-------|
 G|------------------------------12----|
 D|------------------------------------|
 A|------------------------------------|
 E|------------------------------------|
 e-------------------------------------|
 B-12-12-12---12-12-12-13-12-10--------|
 G------------------------------12-----|
 D-------------------------------------|
 A-------------------------------------|
 E-------------------------------------|
 e-------------------------------------|
 B-16b---15---17-15-13---13-15-17---13-|
 G-------------------------------------|
 D-------------------------------------|
 A-------------------------------------|
 E-------------------------------------|
 e-------------------------------------|
 B-15-13-15----------------------------|
 G------------14-12--------------------|
 D------------------12-14--14p12-------|
 A-------------------------------------|
 E-------------------------------------|


 DD
 I've kept the rain falling down on me
 GA
 all the time, all the time.
 DD
 I've kept the rain falling down on me
 GA
 all the time, all the time.



A C D F G
variations - click chord images
Transpose chords:
Tuning:
Cool service:
View: Size:
A  A  A
Rating:
Layout:
  • Currently 2.8/5 Stars.
  • 1
  • 2
  • 3
  • 4
  • 5
 
Accuracy:
  • Currently 2.9/5 Stars.
  • 1
  • 2
  • 3
  • 4
  • 5
 
click stars to rate
Chordie recommends:
Get acoustic guitar lessons and electric guitar lessons at JamPlay.com
Songbook:
Login to add this song to your songbook
Support the artist
Preview/buy this song
MSN Music
Why this non-profit ad?

 
login to add comments/video/corrections