Guitar Tabs, Chords and Lyrics


I Am A Lonesome Fugitive  Roy Buchanan

[A]I'd like to settle [D]down but they won't[E] let me
A [D]fugitive must be a rolling [E]stone
Down [A]every road there's [D]always one more[E] city
I'm [D]on the run, the [E]highway is my [A]home

[A]I raised a lot of [D]cane back in my [E]younger days
While [D]Mama used to [E]pray my crops would [A]fail
[A]I'm a hunted [D]fugitive with [E]just two ways:
Out[D]run the law or [E]spend my life in [A]jail
[A]I'd like to settle [D]down but they won't[E] let me
A [D]fugitive must be a rolling [E]stone
Down [A]every road there's [D]always one more[E] city
I'm [D]on the run, the [E]highway is my [A]home

e|-12-12-12--------------------------------------------------------------5-5---------|
B|----------14-14-14-14-12-12-12-12-10-10-9-7-5-5-7b-7b-5-7b-7b-7b-5-5-5-----7-5-3-3-|
G|-----------------------------------------------------------------------------------|
D|-----------------------------------------------------------------------------------|
A|-----------------------------------------------------------------------------------|
E|-----------------------------------------------------------------------------------|
e|-----2-5-4-4-5-7-4-------12-12-12--------------------------------------------------|
B|-3-3---------------7-5------------14-14-14-14-12-12-10-12-10-10-9-7-5-5-7b-7b-5-7b-|
G|-----------------------------------------------------------------------------------|
D|-----------------------------------------------------------------------------------|
A|-----------------------------------------------------------------------------------|
E|-----------------------------------------------------------------------------------|
e|----------------2-5-2-4-2---2-4-5---14-12------------------------------------------|
B|-7b-7b-7b-5-2-3-----------5---------------14-12-10-12b-12b-12b-10-12-10------------|
G|-----------------------------------------------------------------------------------|
D|-----------------------------------------------------------------------------------|
A|-----------------------------------------------------------------------------------|
E|-----------------------------------------------------------------------------------|



[A]I'd like to take you [D]with me but can't afford[E] the luxury
A [D]fugitive must [E]be a rolling [A]stone
[A]You'd only slow me [D]down and they'd catch [E]up with me
For [D]he who travels [E]fastest goes [A]alone
[A]I'd like to settle [D]down but they won't[E] let me
A [D]fugitive must be a rolling [E]stone
[A]Down every road there's [D]always one more[E] city
I'm [D]on the run, the [E]highway is my [A]home
I'm [D]on the run, the [E]highway is my [A]home

Important: The song above is NOT stored on the Chordie server. The original song is hosted at www.guitaretab.com. Chordie works as a search engine and provides on-the-fly formatting. Chordie does not index songs against artists'/composers' will. To remove this song please click here.

Text color:
Chord color:
Chord grids: 
Font size:    
Page size: 

A D E
variations - click chord images

Login - add to songbook

Transpose chords

Tuning

Rating click stars to rate

Layout
Accuracy

SHARE PAGE  




You need to log in to post comments