Guitar Tabs, Chords and Lyrics


Nau   Runic



     NAU
     Runic
     Liar Flags (2006)

     Band Website :- http://www.runic-band.com/

     INTRO

 D |--------------------------------------------------------------------------|
 A |--------------------------------------------------------------------------|
 F |--------------------------------------------------------------------------|
 C |--------------------------------------------------------------------------|
 G |--------------------------------------------------------------------------|
 D |-0-000-0-0-000-0-000000-0-000-0-0-000-0-555555----------------------------|

 D |--------------------------------------------------------------------------|
 A |--------------------------------------------------------------------------|
 F |--------------------------------------------------------------------------|  x2
 C |--------------------------------------------------------------------------|
 G |--------------------------------------------------------------------------|
 D |-0-000-0-0-000-0-000000-5-555-5-5-555-5-555555----------------------------|

 D |---------------------------------------------|
 A |---------------------------------------------|
 F |--------------2-4---9-7h9p7----7-6h7p6-------|   x2
 C |--2--4-5--2-5---------------9----------7-9---|
 G |---------------------------------------------|
 D |---------------------------------------------|

 D |----------------------------------------------------------------------|
 A |----------------------------------------------------------------------|
 F |--9-7h9p7---7-6h7p6---6-4h6p4---4-2h4p2----2----------2-4-------------|
 C-|----------9---------7---------5---------4-----5--2-4-5----5--2-4-5----|
 G |----------------------------------------------------------------------|
 D |----------------------------------------------------------------------|


 D |---------------------------|
 A |---------------------------|
 F |-----2-4---2---------------|
 C |-2-5---------5-4-5-2-2-----|  x2
 G |--------------------(2)----|
 D |--------------------(0)----|

 D |-------------------------------------------------------------------------|
 A |-------------------------------------------------------------------------|
 F |-----------------5-----5--7---------------------------5-----5--7---------|
 C |-----2-----2-----5-----5-s7---------------2-----2-----5-----5-s7---------|
 G |-----2-----2-3-3-3-3-3-3--5---------------2-----2-3-3-3-3-3-3--5---------|
 D |-0-0-0-0-0-0--------------------------0-0-0-0-0-0------------------------|

   Keyboard:-

 D |--19p15----15--19p15----15---20p15----15---20p15----15---|
 A |--------17-----------17------------17------------17------|
 F |---------------------------------------------------------|
 C |---------------------------------------------------------|
 G |---------------------------------------------------------|
 D |---------------------------------------------------------|

 D |-------14-17p14----14-17p14----14-17p14-----14-17p14-----|
 A |----15----------15----------15-----------15--------------|
 F |---------------------------------------------------------|
 C |---------------------------------------------------------| x2
 G |---------------------------------------------------------|
 D |---------------------------------------------------------|


    I Covered about 3/4th of the song in this tab...i hope other experienced tabbers see 
and improve on it and work on       tabbing some other songs by this amazing band - Runic!


Important: The song above is NOT stored on the Chordie server. The original song is hosted at www.guitaretab.com. Chordie works as a search engine and provides on-the-fly formatting. Chordie does not index songs against artists'/composers' will. To remove this song please click here.

This song is displayed as text-only. Transposing and tuning is only available for chordpro-songs.

Login - add to songbook

Rating click stars to rate

Layout
Accuracy

Jango Player

SHARE PAGE  




You need to log in to post comments