Guitar Tabs, Chords and Lyrics


Tactics  Rurouni Kenshin

|-----------------------------------|


|---0---0---2---1---0---0---2---1---|


|--0-0-0-0-2-2-2-2-0-0-0-0-2-2-2-2--|

|-2---2---2---2---2---2---2---2-----|
|-----------------------------------|
|-----------------------------------|
|------------------------------------|
|----8---10/12-10-8-10-10-8-10-10h8--|
|--9---9-----------------------------| x4
|------------------------------------|
|------------------------------------| last one end
|------------------------------------| on first 9
[Em]                                     
-0:37-

[Em]Gira tto shita kimi [A]no me ni do[Am]ki [Em]tto shita hirus[A]agari  [Am]
[Em]Shakki tto shita or[F#]e no kar[B]ada mar[C]ude tamesarete[Eb]ru you n[G]i
[Em]Tsun tto shita k[A]imi to ku[Am]uki ni z[Em]oku tto shita k[A]oigokor[Am]o wa
[Em]Zara tto shita s[F#]una wo k[B]ami sar[C]eru ga mama yo[Eb]ru ni na[G]ru

-1:10-

[Am]Sorosoro jiman no kuc[Em]hibiru de w[Am]ain wo nomasete [Em]kurenai ka
[Am]Mangetsu no yoru n[Em]i musubareta o[F#]toko to onna wa [B]eien sa

-1:26-

[Em]Hageshiku lady ah gi[A]ve me y[Am]our love
[Em]Ayashiku lady I [A]need your [Am]love

-1:34-

Gtr2
|----------------------|
|----------------------|
|----------------------|
|--------------9-7-----|
|--------9h10p9----10--|
|-3-7-10-------------8-|


[G]Tama ni miseru samishige[Bm] na me ga
[C]Uso ka hontou ka wakaran[B]ai

[Em]Sunao ni lady ah giv[A]e me yo[Am]ur love
[Em]Kanjite mite lady I [A]need yo[Am]ur love
Gtr2
|----------------------|
|----------------------|
|----------------------|
|--------------9-7-----|
|--------9h10p9----10--|
|-3-7-10-------------8-|


[G]Kimi no shigusa ni furim[Bm]awasarete
[C]Muchuu no ai wa ore no n[B]aka de odoru

-1:59-

Gtr1
Em A Am x2

Gtr2
|-----------------------------------------|
|----8---10/12-10-8-10-10-8-10-10h8-------|
|--9---9----------------------------------|   x2
|-----------------------------------------|
|-----------------------------------------|
|-----------------------------------------|



-2:07-

[Em]Sara tto shita ka[A]mi wo t[Am]oki
[Em]tsuya tto shita h[A]ada wo [Am]yose
[Em]Kotoba-asobi wo[F#] suru you n[B]i
kimi [C]wa ore wo mo[Eb]teasobu[G]

-2:23-

Guitar Solo

[Em]   [F#]   [B]  [C]  [Eb]   [G]                        

-2:40-

[Am]Kakehiki wa tsuyoi k[Em]imi no naka
[Am]ayamachi wa yowai or[Em]e no naka
[Am]Suki na dake tanoshi[Em]meba ii sa
[F#]otoko to onna wa ei[B]en sa

-2:56-

  [B]  [B]    [B]  [D]  [Eb]                                                         
|-------------|
|-------------|
|-4-4---4-7-8-|
|-4-4---4-7-8-|
|-2-2---2-5-6-|
|-------------|


Gtr1
|-----------------------------------|
|---0---0---2---1---0---0---2---1---|
|--0-0-0-0-2-2-2-2-0-0-0-0-2-2-2-2--|
|-2---2---2---2---2---2---2---2-----| x2
|-----------------------------------|
|-----------------------------------|

Hageshiku lady ah give me your love
Ayashiku lady I need your love

-3:06-

Gtr2
|----------------------|
|----------------------|
|----------------------|
|--------------9-7-----|
|--------9h10p9----10--|
|-3-7-10-------------8-|


[G]Tama ni miseru yasashii [Bm]egao ga
[C]Uso ka hontou ka wakaran[B]ai
[Em]Sunao ni lady ah giv[A]e me yo[Am]ur love
[Em]Kanjite mite lady I [A]need yo[Am]ur love

Gtr2
|----------------------|
|----------------------|
|----------------------|
|--------------9-7-----|
|--------9h10p9----10--|
|-3-7-10-------------8-|


[G]Kimi no shigusa de ore w[Bm]o koroshite
[C]Sono isshun ga nani yori[B] shiawase sa

-3:31-

Gtr2
|-----------------------------------------|
|----8---10/12-10-8-10-10-8-10-10h8-------|
|--9---9----------------------------------|  till fade out
|-----------------------------------------|
|-----------------------------------------|
|-----------------------------------------|



Gtr1
|
Em A Am Em A Am |
Yami no naka odoru dakishimete odoru |
Em A Am Em A Am | till fade out
Nando demo odoru eien ni odoru |
Em A Am Em A Am |
Eien ni odoru eien ni odoru |

[Em]   [A]  [Am]                                

Anything: magnificent_adroitness@hotmail.com

Maximo

Important: The song above is NOT stored on the Chordie server. The original song is hosted at www.guitaretab.com. Chordie works as a search engine and provides on-the-fly formatting. Chordie does not index songs against artists'/composers' will. To remove this song please click here.

Text color:
Chord color:
Chord grids: 
Font size:    
Page size: 

A Am B Bm C D Eb Em F# G
variations - click chord images

Login - add to songbook

Transpose chords

Tuning

Rating click stars to rate

Layout
Accuracy

SHARE PAGE  




You need to log in to post comments