""; ?> insertsongandartist - guitar chords, guitar tabs and lyrics - chordie




 x35553
  = fret box; this is a C chord - this is the same as standard
tablature, only turned on its side. Tilt your head clockwise to read.

Chords used:

 xx0787
G/D   :  
 xx0232
D     :  
 320033
G     :  
 3x2010
C/G   :  
 xx0010
C/D   :  
 x32030
CaddD :  

 Riff 1
                 *this part only played first time*
(is this alternate picking or a delay?)
e:---------------------|---------------------------------------------|
B:---------------------|---------------------------------------------|
G:---------------------|---------------------------------------------|
D:-----------5--4------|-----------------5-5--4-4--------------------|
A:--2--4--5--------5---|--2-2--4-4--5-5------------5-5---------------|
E:---------------------|---------------------------------------------|


 Riff 2
 AD/ADsus4/A
e:-------------2~-------2~-------3~----------------------------------|
B:----2~-------3~-------3~-------3~----------------------------------|
G:----2~-------2~-------2~-------2~----------------------------------|
D:----2~-------0~-------0~-------0~----------------------------------|
A:----0~-------0~-------0~-------0~----------------------------------|
E:-------------------------------------------------------------------|


 Riff 3
 ADG
e:----------2~------------------3-3-----------------3-3--------------|
B:---2~-----3~------------------3-3-----------------3-3--------------|
G:---2~-----2~------------------0-0-----------------0-0--------------|
D:---2~-----0~------------------0-0-----------------0-0--------------|
A:---0~-----------4-5-4---------2-2---4-5-4---------2-2--------------|
E:----------------------5-3~----3-3---------5-3~----3-3--------------|


 Riff 4
  - on acoustic guitar
____________________________________________________
A |1. G6 D/F# |2. G6 D/F#
e:--0--0-0-0-0-0-0-0-|----0--0-0-----------------|---0-0-0-----0-0-0----|
B:--2--2-2-2-2-2-2-2-|----3--3-3---3--3-3-3-3-3--|---3-3-3-3-3-3-3-3-3-3|
G:o-2--2-2-2-2-2-2-2-|----0--0-0---2--2-2-2-2-2-o|---0-0-0-2-2-0-0-0-2-2|
D:o-2--2-2-2-2-2-2-2-|----0--0-0---0--0-0-0-0-0-o|---0-0-0-0-0-0-0-0-0-0|
A:--0--0-0-0-0-0-0-0-|----x--x-x---x--x-x-x-x-x--|---x-x-x-x-x-x-x-x-x-x|
E:-------------------|----3--3-3---2--2-2-2-2-2--|---3-3-3-2-2-3-3-3-2-2|


 Riff 5
  - Freely
 DABmE
e:--2---2-2-2-2----0------0----------2----------0--------------------|
B:--3--------------2--2-3------------3----3--3----3-2----0~----------|
G:--2--------------2-----------------4----------------4--1~----------|
D:--0--------------2-----------------4-------------------2~---2~-----|
A:-----------------0-----------------2-------------------2~---2~-----|
E:-------------------------------------------------------0~---0~-----|

 AmG
e:-------------------------------------------------------------------|
B:--1--1---1---3--1---0--------3--0--0-------------------------------|
G:--2-------------------2--0~----------------------------------------|
D:--2----------------------------------------------------------------|
A:--0----------------------------------------------------------------|
E:-------------------------------------------------------------------|


 Riff 6
 AGD/F#
e:----------3-3-3-3-3-3-3-3-3----------------------------------------|
B:-----2----3-3-3-3-3-3-3-3-3--3-------------------------------------|
G:-----2----0-0-0-0-0-0-0-0-0--2-------------------------------------|
D:-----2----0-0-0-0-0-0-0-0-0--0-------------------------------------|
A:-----0----2-2-2-2-2-2-2-2-2--x-------------------------------------|
E:----------3-3-3-3-3-3-3-3-3--2-------------------------------------|


 Riff 7
  - Freely (that means I'm not sure exactly how it goes)
 ADEG
e:-------------------------------------------------------------------|
B:-----2---2--2h3---3-3--2--------7---7--7h8--8-8--7-----------------|
G:------------2-----2-2--2---------------7----7-7--7-----------------|
D:-------2----2h4---4-4--2------0---7----7h9--9-9--7-----------------|
A:---0---------------------------------------------------------------|
E:-------------------------------------------------------------------|


Progression:

 Riff 1
  x1
 Riff 2
  x3
 Riff 3
  x1

 Riff 4
  x2 /w lyrics:

A modest man from Mandrake travelled rich to the city.
He had a need to discover a use for his newly found wealth.

 G/DDDC/GC/GC/GGG
Because he was human, because he had goodness,
 G/DDDC/GC/GC/GG/D
Because he was moral they called him insane.
 G/DDDC/GC/GGG
Delusions of grandeur, visions of splendor,
 G/DDC/GC/GG/D
manic depressive, he walks in the rain.

 G/DDC/DDG/DDDC/DDCaddD
 Eyes wide open, heart undefended...    innocence untarnished.

 Riff 5
  x1 /w lyrics:
 DABmE
    Cinderella man    doing what you can.
 AmGRiff 1
    They can't understand what it means.  x1

 Riff 6
  x1

 Riff 5
  x1 /w lyrics:
 DABm
    Cinderella man      hang on to your plans.
 AmGRiff 1
    Try as they might they cannot steal your dreams.  x1

 Riff 2
  x3
 Riff 3
  x1

 Riff 4
  x2 /w lyrics:

In the betrayal of his love he awakened, to face a world of cold reality.
And a look in the eyes of the hungry, awakened his to what he could do.

 G/DDDC/GC/GC/GGG
He held up his riches to challenge the hungry.
 G/DDDC/GC/GG/D
Purposeful motion for one so insane.
 G/DDDC/GC/GG
They tried to fight him, just couldn't beat him.
 G/DDC/GC/GG/D
This manic depressive who walks in the rain.

 Riff 7
  x1

 Guitar SoloRiff 7
  over  - another solo bites the dust

 Riff 5
  x1 /w lyrics:
 DABmE
    Cinderella man    doing what you can.
 AmGRiff 1
    They can't understand what it means.  x1

 Riff 6
  x1

 Riff 5
  x1 /w lyrics:
 DABm
    Cinderella man      hang on to your plans.
 AmGRiff 1
    Try as they might they cannot steal your dreams.  x1

 Outro
 :

 AGA
e:------------------------3-3------------------|---------------------|
B:--2--2--2---------------3-3------------------|-2--2--2-------------|
G:o-2--2--2---------------0-0-----------------o|-2--2--2-------------|
D:o-2--2--2---------------0-0--------5-4------o|-2--2--2-------------|
A:--0--0--0-4-4-5-4-------2-2--2-4-5-----5-----|-0--0--0--4-4-5-4----|
E:------------------5-3~--3-3------------------|------------------5--|

 GG/DDC/DDG/DDC/DDsus4/AD
e:------3-3----------------3-3--|---7--2--0--2--7--2-2--0---|--3---2~--|
B:------3-3----------------3-3--|---8--3--1--3--8--3-3--1---|--3---3~--|
G:------0-0----------------0-0--|o--7--2--0--2--7--2-2--0--o|--2---2~--|
D:------0-0----------------0-0--|o--0--0--0--0--0--0-0--0--o|--2---0~--|
A:------2-2--4-4-5-4-------2-2--|---------------------------|--0-------|
E:--3~--3-3----------5-3~--3-3--|---------------------------|----------|