Chordie logo

Something For Nothing   Rush



-----------------------------------------------------------------------------
			    Something for nothing - Rush
-----------------------------------------------------------------------------
Tabbed by: Chris
Email: voodoochild1787@yahoo.com

This is how i play it by ear... im pretty sure its correct.

Tuning: standard

Intro:

e|-------------(5)--5-----3----------------5-----3-------
B|---------5----------5-----3----------5-----5-----3-----
G|-------6---6----------6-----4----------6-----6-----4---
D|-----7-----------------------------7-------------------
A|---7-----------------------------7---------------------
E|---5---------------------------5-----------------------


e|------------5-----3----------------5-----3------------|
B|-------5------5-----3----------5-----5-----3----------|
G|---------6------6-----4----------6-----6-----4--------|
D|-----7-----------------------7------------------------|
A|---7-----------------------7--------------------------|
E|-5-----------------------5----------------------------|


e|------------------9-----------------9-----------------|
B|-------5-----8------5----------5------5---8-----------|
G|---------6-----6------6----------6------6---6---------|
D|-----7-----7-----7-----------7-----7----------7-------|
A|---7-----------------------7--------------------------|
E|-5-----------------------5----------------------------|



e|------------------9-----------------9-----------------|
B|-------5-----8------5----------5------5---8-----------|
G|---------6-----6------6----------6------6---6---------|
D|-----7-----7-----7-----------7-----7----------7-------|
A|---7-----------------------7--------------------------|
E|-5-----------------------5----------------------------|


"Waiting for the winds of change to sweep the clouds away..."

e|------------------9-----------------9-----------------|
B|-------5-----8------5----------5------5---8-----------|
G|---------6-----6------6----------6------6---6---------|
D|-----7-----7-----7-----------7-----7----------7-------|
A|---7-----------------------7--------------------------|
E|-5-----------------------5----------------------------|


"waiting for the rainbows end to cast its gold your way..."

e|------------------9-----------------9-----------------|
B|-------5-----8------5----------5------5---8-----------|
G|---------6-----6------6----------6------6---6---------|
D|-----7-----7-----7-----------7-----7----------7-------|
A|---7-----------------------7--------------------------|
E|-5-----------------------5----------------------------|


  "countless ways..."

e|-------------------7------------------------------|
B|-------5-------------5----------------------------|
G|---------6-------6-----6----77-----7-----7--------|
D|-----7-----7---7------------77--7--7--7--7--77----|
A|---7---------7--------------55--7--5--7--5--77----|
E|-5------------------------------5-----5-----55----|


  "you pass the days..."

e|-------------------7------------------------------|
B|-------5-------------5----------------------------|
G|---------6-------6-----6----77-----7-----7--------|
D|-----7-----7---7------------77--7--7--7--7--77----|
A|---7---------7--------------55--7--5--7--5--77-7\-|
E|-5------------------------------5-----5-----55----|

  
  "waiting for someone to call and turn your world around..."

e|----------------------------------------------------|
B|----------------------------------------------------|
G|-77-7\---7\--777\--7--------5-----------------------|
D|-77-7\-7-7\--777\--7--7--5--5-----------------------|
A|-55-5\-7-5\--555\--5--7--5--3-----------------------|
E|-------5--------------5--3--------------------------|


 "looking for an answer to the question you have found..."

e|----------------------------------------------------|
B|----------------------------------------------------|
G|-77-7\---7\--777\--7--------5-----------------------|
D|-77-7\-7-7\--777\--7--7--5--5-----------------------|
A|-55-5\-7-5\--555\--5--7--5--3-----------------------|
E|-------5--------------5--3--------------------------|


 "looking for..."


e|---1--------4----------------------|

B|---1--------4----------------------|
G|---2--------5--77-----7-----7------|
D|-333-------66--77--7--7--7--7--77--|
A|-333-------66--55--7--5--7--5--77--|
E|-11--2-3-4-4-------5-----5-----55--|



 "an open door..."

e|---1--------4------------------------------------------------|
B|---1--------4------------------------------------------------|
G|---2--------5--77-----7-----7-----77---77-----7-----7--------|
D|-333-------66--77--7--7--7--7--7--77---77--7--7--7--7--77----|
A|-333-------66--55--7--5--7--5--7--55---55--7--5--7--5--77----|
E|-11--2-3-4-4-------5-----5-----5-----------5-----5-----55----|



 "you dont get something for nothing, you cant have freedom for free"

e|------------------------------------------------------|
B|------------------------------------------------------|
G|-7--5--7-------------------7--5--7-------------1------|
D|-7--5--7-------------------7--5--7-------------1------|
A|-5--3--5---1-2-3-------1---5--3--5---1-2-3-----1------|
E|-----------------1-2-3---------------------1-3--------|



 "you wont get wise with the sleep still in your eyes no matter

   what your dream might be"
e|------------------------------------------------------|
B|------------------------------------------------------|
G|-7--5--7-------------------7--5--7--------------------|
D|-7--5--7-------------------7--5--7--------------------|
A|-5--3--5---1-2-3-------1---5--3--5--------------------|
E|-----------------1-2-3--------------------------------|





Important: The song above is NOT stored on the Chordie server. The original song is hosted at www.guitaretab.com. Chordie works as a search engine and provides on-the-fly formatting. Chordie does not index songs against artists/composers will. To remove this song please click here.

This song is displayed as text-only. Transposing and tuning is only available for chordpro-songs.

Login - add to songbook

Rating click stars to rate

Layout
Accuracy

SHARE PAGE  

You need to log in to post comments