Guitar Tabs, Chords and Lyrics


Armor And Sword   Rush



this is my first tab on here so take it easy. I got most of the song except the "solo" 
the little outro part that is a little different, but they both could easily be figured 
i'm just too tired. :/ Here goes nothing

Intro: (there's extra strumming involved, but this is the basic pattern)

e-|--0-2023--0-0203-3--|
B-|--1-1111--1-1111-1--|
G-|--0-0000--0-0000-0--| repeat
D-|--------------------|
A-|--------------------|
E-|--------------------|

Intro: part II

e-|--5-7578--5-575/10-10-10--|
B-|--6-6666--6-666/10-10-10--|
G-|--------------------------|
D-|--------------------------|
A-|--------------------------|
E-|--------------------------|

repeat 1st intro part

then the next part which is used in the chorus as well, i think.

strum the chords along with the beat 8 times

       C        Em                   D                  x2         x2
e-|--0-0-0-0----|------------|-------------------------0-0-0-0-----------|
B-|--1-1-1-1----|--0-0-0-0---|-----(7)-----------------1-1-1-1--0-0-0-0--|
G-|--0-0-0-0--x2|--0-0-0-0-x2|--(7)------------0-------0-0-0-0--0-0-0-0--|
D-|--2-2-2-2----|--2-2-2-2---|-------------4-----4-----2-2-2-2--2-2-2-2--|
A-|--3-3-3-3----|--2-2-2-2---|-----------5---5-----5---3-3-3-3--2-2-2-2--|
E-|-------------|--0-0-0-0---|----------------------------------0-0-0-0--|

you can strum this however you feel is best, this is still x8

      D  x2      C  x2
e-|--2-2-2-2--|--0-0-0-0--|
B-|--3-3-3-3--|--1-1-1-1--|
G-|--2-2-2-2--|--0-0-0-0--|
D-|--0-0-0-0--|--2-2-2-2--|
A-|-----------|--3-3-3-3--|
E-|-----------|-----------|

i gotta sleep. i got off work at 7 30 am.m and now it's 10 30 a.m. 3rd shift is lame. 


Important: The song above is NOT stored on the Chordie server. The original song is hosted at www.guitaretab.com. Chordie works as a search engine and provides on-the-fly formatting. Chordie does not index songs against artists/composers will. To remove this song please click here.

This song is displayed as text-only. Transposing and tuning is only available for chordpro-songs.

Login - add to songbook

Rating click stars to rate

Layout
Accuracy

SHARE PAGE  




You need to log in to post comments