Chordie logo


Tainted Wheat   Rx Bandits



---------------------------------------------------------------------------
 Tainted Wheat - Rx Bandits
---------------------------------------------------------------------------
Tabbed by: OnlyOnTuesdays
Aim: Th3 Wh1tee
Email: th3wh1tee@tmail.com

Rx Bandits

Tainted Wheat

Tuning: Standard eBGDAE

Cool song. I'll gradually finish it. 

Key 

.  - palm mute
/  - slide up and down to
b  - Bend
() - Natural harmonics
*  - Pinch harmonics
h  - Hammer
p  - Pull off
"  - Tremolo Picking
x  - Mute



Insane Intro. 0:00-0:23
eb|-------------------------------------------------------------------------------||
Bb|-------------------------------------------------------------------------------||
Gb|--12-12-12-11-12---------------------------------------------------------------|| 
Db|----------------------------9------------------9-------------------9-----------|| 
Ab|--10-10-10-9--10----10-10-7---7-10-7---------7---7-10-7---------10-----9-10-12-||
Eb|-------------------------------------0------------------0----12------0---------||


eb|-------------------------------------------------------------------||
Bb|-------------------------------------------------------------------||
Gb|-------------------------------------------------------------------|| 
Db|------------9------------------9---------------------9-------------|| x3
Ab|----10-10-7---7-10-7---------7---7-10-7-----------10-------9-10-12-||
Eb|---------------------0-------------------0-----12-------0----------||


eb|-------------------------------------------||
Bb|------------------------11-11--11-11-------||
Gb|------------------------11-11--11-11-------|| 
Db|----------9-------------11-11--11-11-------||
Ab|--10-10-7---7-10-7------9--9---9--9--------||
Eb|-------------------0-----------------------||


Verse Clean w/ Delay Part 1  0:23-0:33
eb|-----14-14--15--19----17------14---14-15-19-17----||
Bb|--12---------------19--------------------------17-||
Gb|--------------------------------------------------|| 
Db|--------------------------------------------------|| 
Ab|--------------------------------------------------||
Eb|--------------------------------------------------||


Important: The song above is NOT stored on the Chordie server. The original song is hosted at www.guitaretab.com. Chordie works as a search engine and provides on-the-fly formatting. Chordie does not index songs against artists/composers will. To remove this song please click here.

This song is displayed as text-only. Transposing and tuning is only available for chordpro-songs.

Login - add to songbook

Rating click stars to rate

Layout
Accuracy

SHARE PAGE  




You need to log in to post comments