"yes"; ?> Love Is Hell by Ryan Adams - guitar chords, guitar tabs and lyrics - chordie

Love Is Hell

Ryan Adams

|-------------------------------|

|-------------------------------|
|-4-----------2-----------------|
|-4--4-6-6-4--2--2-2--2-1---2---|
|-2--4-6-6-4--0--2-2------4---2-|
|----2-4-4-2-----0-0------------|
|--------------------------------|-5--4-4--2-2--0-0--------------------------|
|---------4---------4---------4--|-5--4-4--2-2--0-0--4---4-5-4---4-5-4---4-5-|
|-4-------4---------4---------4--|-6--4-4--2-2--1-1--4-4-------4-------4-----|
|-4-------4---------4---------4--|-7--6-6--4-4--2-2--4-----------------------|
|-2---4-0-2---4-0-2-2---4-0-2-2--|-7--6-6--4-4--2-2--2-----------------------|
|--------------------------------|-5--4-4--2-2--0-0--------------------------|
------------|
-5/7-5-4----|
---------4--|
------------|
------------|
------------|
|----------0--|
|----------0--|
|----------2--|
|----------2--|
|-------0--0--|
|-0-2-4-------|

 E5F#5A5E5F#5A5
|----------------------------------------------------------------------------|
|----------------------------------------------------------------------------|
|------------------------------------------4---------------------------------|
|---6-7-6------6-7-6----6-7-6------6-7-6-------6-7-6------6-7-6-----6-7-6----|
|------------4-------------------4-------7--------------4---------4----------|
|-0--------0----------0--------0-------------0--------0---------0----------0-|
-----------|
-----------|
-----------|
---6-7-6---|
-4-------7-|
-----------|
|-------------------------------|
|-------------------------------|
|-4-----------2-----------------|
|-4--4-6-6-4--2--2-2--2-1---2---|
|-2--4-6-6-4--0--2-2------4---2-|
|----2-4-4-2-----0-0------------|


Verse 2
|-----------------------------|-5--4-4--2-2--0-0--------------------------|
|---------4---------4---------|-5--4-4--2-2--0-0--4---4-5-4---4-5-4---4-5-|
|-4-------4---------4-------2-|-6--4-4--2-2--1-1--4-4-------4-------4-----|
|-4-------4---------4-------2-|-7--6-6--4-4--2-2--4-----------------------|
|-2---4-0-2---4-0-2-2-------0-|-7--6-6--4-4--2-2--2-----------------------|
|-----------------------------|-5--4-4--2-2--0-0--------------------------|
------------|
-5/7-5-4----|
---------4--|
------------|
------------|
------------|


Chorus
|----------0--|
|----------0--|
|----------2--|
|----------2--|
|-------0--0--|
|-0-2-4-------|


End of Chorus 2
 E5F#5A5E5F#5A5
|---------------------------------------------------------------------------|
|---------------------------------------------------------------------------|
|-----------------------------------------4---------------------------------|
|-----6-7-6---6-7-6-----6-7-6-----6-7-6-------6-7-6-----6-7-6-----6-7-6---6-|
|---4-----------------4---------4-------7-------------4---------4-----------|
|-0---------0-------0---------0-------------0-------0---------0---------0---|


Outro (I can't tell exactly what the chords are so here's the lead/piano)
|----------------------------------|
|----------------------------------|
|----------------------------------|
|-6-7-9---6-7-9---6-7-9-11-9-7-6---|
|--------------------------------7-|
|----------------------------------|


any questions? andrewbiles@hotmail.com
___________________________________
Lyrics (www.lyricsdomain.com):

There's strange weather in the back of the room
And she's pretty, Jesse's spinning the tunes
Eyelashes, and some white leather boots
God, what have I been drinking?
I could be serious but I'm just kiddin' around
I could be anything, anything but sticking around
Love is hell
Love is hell
Love is . . . hell
Is . . .hell

It's raining, I can see it outside
Funny I'm still in it
Just sitting here with Johnny and Raph'
Untll the room starts spinning
I could be serious but I'm just kiddin' around
I could be anything, nothing, whatever, oh well
Love is hell
Love is hell
Love is . . . hell
Love is . . . hell
Love is . . . hell
Love is . . . hell
Love is . . . hell
Love is . . . hell
Love is . . . hell
Is . . . hell


A5 E5 F#5
variations - click chord images
Transpose chords:
Tuning:
Cool service:
View: Size:
A  A  A
Rating:
Layout:
  • Currently 3.6/5 Stars.
  • 1
  • 2
  • 3
  • 4
  • 5
 
Accuracy:
  • Currently 2.3/5 Stars.
  • 1
  • 2
  • 3
  • 4
  • 5
 
click stars to rate
Chordie recommends:
Learn to play guitar with video-based, online guitar lessons at JamPlay.com
Songbook:
Login to add this song to your songbook
Support the artist
Preview/buy this song
MSN Music
Why this non-profit ad?

 
login to add comments/video/corrections