Guitar Tabs, Chords and Lyrics


Anybody Wanna Take Me Home  Ryan Adams

[Intro] 

    [G]     [Gsus4]            [D]       [Dsus4]                   [Am]        [G]          [C]        
-|-------------------------------------------------5-------3-----8------|-
-|------3-----3---3--------10-------10----10-------5-------3-----8------|-
-|----4---5-----4-------11----12-------11--------5-------4-------9------|-
-|--5-------5--------12----------12------------7-------5---------10-----|-
-|----------------------------------------------------------------------|-
-|----------------------------------------------------------------------|-


[Verse] 
   [Gmaj7]                 [D6]                  [Am]        [G]         [C]          [Dadd4]        
-|------2-----2---2-----2-----2-----------------------------------------|-
-|--------0---------------0-------0-------1-0---------------------------|-
-|---0------0---0-----2-----2-----------2---------0--------0---------0--|-
-|------------------0-----------0---------------0---0----2---------4----|-
-|------------------------------------0----------------3-----3-3s5------|-
-|-3------------------------------------------3-------------------------|-

[Gmaj7]So, I am in the [D6]twilight of my [Am]youth [G]
Not that I'm [C]going to [Dadd4]remember
[Gmaj7]Have you seen the [D6]moon tonight, is it [Am]full? [G]
Still bu[C]rning it'[Dadd4]s embers
[Bridge] 
    [D]   [C]      [D]    [C]    [Bm]        [Bm]        [C]                                    
-|--5--3-----10--8---7-7-7---7-7-7-7-8--8---------|-
-|--7--5-----10--8---7-7-7---7-7-7-7-8--8---------|-
-|--7--5-----11--9---7-7-7---7-7-7-7-9--9---------|-
-|--7--5-----12--10--9-9-9---9-9-9-9-10-10--------|-
-|-------------------9-9-9------------------------|-
-|-------------------7-7-7------------------------|-

    [D]   [C]    [D]   [C]       [Bm]        [C]                                            
-|--10-8---10-8------7-7-7---8--8--8--8-----------|-
-|--10-8---10-8------7-7-7---8--8--8--8---0--0----|-
-|--11-9---11-9------7-7-7---9--9--9--9---0--0----|-
-|--12-10--12-10-----9-9-9---10-10-10-10--0--0----|-
-|-------------------9-9-9---10-10-10-10--0--0----|-
-|-------------------7-7-7---8--8--8--8-----------|-

[D]The[C] people dancing in [D]the [C]corner
They seem [Bm]happy, but I am sad [C]
[D]I a[C]m still dancing in t[D]he c[C]oma of the [Bm]drinks I just had [C]
[Cborus] 
[G]Does anybody [Dsus4]wanna take me ho[Am7]me?
[G]Does anybody [Dsus4]wanna take me [Am7]home?
[G]Take me to yo[Dsus4]ur house and I[Am7]'ll leave you alone
Of course I [Am7]will, of course I[Am7/B] won't
It seems so [C]tragic, but it disappears like magic
-|--------------3---------------------------------|-
-|-3------------3---------------1--------------3--|-
-|-0------------2-------------2---0------0-----0--|-
-|-0---------0--0----------------------0---0---2--|-
-|-x--0-2-3--------3-2-0----0------------------3--|-
-|-3---------------------3-----------3------------|-

Like magic Like magic


[Verse] 
Can you recommend an education or drugs
Because I'm bored with you already
I'm on Broadway and I think it's a parade
I'm covered in pieces of confetti
And I am in the twilight of my youth
Not that I'm going to remember
Dancing and slowly and finding the truth
And it covered in coma

[Bridge] 
All these people in my life, they seem so in love
Well, I am not
Memorizing my shoes in a cigarette shop

Does anybody wanna take me home?
Does anybody wanna take me home?
I'm kinda lonely, will you take me home?
Of course you will, of course you won't
Of course I'm crass, it seems so tragic
Of course you will, of course you won't
But I'll disappear, I'll disappear
Just like magic
Just like magic

Important: The song above is NOT stored on the Chordie server. The original song is hosted at www.guitaretab.com. Chordie works as a search engine and provides on-the-fly formatting. Chordie does not index songs against artists'/composers' will. To remove this song please click here.

Text color:
Chord color:
Chord grids: 
Font size:    
Page size: 

Am Am7 Am7/B Bm C D D6 Dadd4 Dsus4 G Gmaj7 Gsus4
variations - click chord images

Login - add to songbook

Transpose chords

Tuning

Rating click stars to rate

Layout
Accuracy

SHARE PAGE  




You need to log in to post comments