eToCache5 = ""; ?> City Rain City Streets by Ryan Adams - guitar chords, guitar tabs and lyrics - chordie

City Rain City Streets

Ryan Adams

 Intro
-|-0--------2-------4-------2-------|-
-|---2--------2-------2-------2-----|-
-|-----1--------2-------2-------2---|-
-|-------2--------2-------2-------2-|-
-|----------------------------------|-
-|----------------------------------|-
-|-0--------2-------4--------5------|-
-|---2--------2-------2------2------|-
-|-----1--------2-------2----2------|-
-|-------2--------2-------2--2------|-
-|----------------------------------|-
-|----------------------------------|-


 Verse
 Emaj7Amaj7
-|---------------------0------------|-
-|--------9------------2------------|-
-|--------8------------1------------|-
-|--------9------------2------------|-
-|--------7------------0------------|-
-|----------------------------------|-
-|----------------------------------|-
-|--------0-------------------------|-
-|------1----------------------2-1--|-
-|--2-4--------------------2-4------|-
-|----------------------------------|-
-|----------------------------------|-

 Emaj7
Oh, the city rain
 Amaj7Emaj7
 It floods the city streets
 Amaj7Emaj7
 And in my city bed

 Cborus
x1 | x6
-|-7-----5------|--------7---5------|-
-|---7-----5----|------7-------5----|-
-|-----6-----6--|--6s8-----6-----6--|-
-|--------------|-------------------|-
-|--------------|-------------------|-
-|--------------|-------------------|-
-|-----7---7-----7-----7-----7------|-
-|---7-------7-----7-----7-----7----|-
-|-8-----8-----8-----8-----8-----8--|-
-|----------------------------------|-
-|----------------------------------|-
-|----------------------------------|-


 Amaj7BA
 Out of my fuckin' head  
 BABA
 Is it snowing in space?  
 BABAB
 God I wish I could talk to you
 AB
 Is it snowing in space?

 Verse
And all the city snow
Freezes the Chelsea in ??
It stones the Chelsea girls
It stones the Chelsea boys

 Cborus
Is it snowing in space?
God I wish I could talk to you
Is it snowing in space?

 Part 2
 F#mBmAmaj7
 How does your body feel today?
 Emaj7
forgot to ask
 F#mBm
 Genius in a hospital bed

-|-0--------2-------4-------2-------|-
-|---2--------2-------2-------2-----|-
-|-----1--------2-------2-------2---|-
-|-------2--------2-------2-------2-|-
-|----------------------------------|-
-|----------------------------------|-

With briar-patch hair, just isn't fair

 F#mBmAmaj7A6Amaj7(2
 Takin' bullets for a team of bad poets, how is it up there?
 F#mBm
 Takin' bullets for the team,

 Part 3
Riff1:
-|------------------------2-0-------|-
-|------------0---0-----0-----0-----|-
-|------2---4---2-----2-------------|-
-|----5---5---------0---------------|-
-|--3-------------------------------|-
-|----------------------------------|-

Riff2:
-|-------------------0--------------|-
-|-------0---------0----------------|-
-|-------0-------0------------------|-
-|---0-2-------4--------------------|-
-|--3--------5----------------------|-
-|----------------------------------|-

 C6maj7D6
 I really miss you
I really miss you
I really miss you
I fucked you over a million times
I fucked you over a million times
I fucked you over a million times
And you died, you died, you really died
Died, died, you really died

Emaj7 Amaj7 x3

 Ending

-G|-----1-----2-----4-----6---------|-
-D|-------2-----4-----6-----7-------|-


 EF#mG#mA
 I am going to push them way
 EF#mG#mA
 Fall into the leaves of the winter trees
 EF#mG#mAEmaj7
 Drowning, slowly, lonely, my city of rain


A A6 Amaj7 B Bm D6 E Emaj7 F#m G#m
variations - click chord images
Transpose chords:
Tuning:
Cool service:
View: Size:
A  A  A
Rating:
Layout:
  • Currently 3.2/5 Stars.
  • 1
  • 2
  • 3
  • 4
  • 5
 
Accuracy:
  • Currently 2.6/5 Stars.
  • 1
  • 2
  • 3
  • 4
  • 5
 
click stars to rate
Chordie recommends:
Learn how to play guitar at JamPlay.com
Songbook:
Login to add this song to your songbook
Support the artist
Preview/buy this song
MSN Music
Why this non-profit ad?

 
login to add comments/video/corrections