Guitar Tabs, Chords and Lyrics


La Cienega Just Smiled  Ryan Adams

[Cadd9]   Oh the nigh[Dsus4]t, Here it comes aga[G]in

[Cadd9]It's on with the jeans[Dsus4], the jacket, and the s[G]hirt

[Cadd9]   How'd I end u[Dsus4]p feelin' [G]so bad
Such [Em7]a little girl
-Verse II-

[Cadd9]And I'll hold you close in the back[Dsus4] of my mind[G]

It[Cadd9] feels so good, but da[Dsus4]mn it makes me [G]hurt
[Cadd9]  And I'm too scared to [Dsus4]know how i f[Em7]eel ab[Dsus4]out you[Cadd9] now
La [Cadd9]Cienega just smiles a[Dsus4]nd     I'll se ya aroun[G]d    [Cadd9]      [G]
-Verse III-

Now I [Cadd9]hold you close in the back[Dsus4] of my mind   [G]

[Cadd9]I raise my glass caus[Dsus4]e either way i'm dead     [G]
[Cadd9]Neither of you really he[Dsus4]lp me to [Em7]sleep [Dsus4]anymore[Cadd9]
[Em7]one breaks my body and the[Cadd9] other breaks my soul
[Cadd9]la cienega just [Dsus4]smiles and waves goodby[G]e
(repeat) Cadd9 G
SOLO (acoustic)


[Cadd9]Oh the night, here it comes a[Dsus4]gain            [G]
[Cadd9]Its off with the jeans, the jack[Dsus4]et, and the shirt   [G]
[Cadd9]How'd I end up feel[Dsus4]in so bad         [G]
Such [Em7]a little girl
[Cadd9]And i'll hold you close in the [Dsus4]back of my mind[G]
[Cadd9]Feels so good, but damn[Dsus4] it makes me hurt    [G]
[Cadd9]I'm too scared to know[Dsus4] how i fe[Em7]el abou[Dsus4]t ya no[Cadd9]w
How i [Em7]feel a[Dsus4]bout ya [Cadd9]now
La [Cadd9]Cienega just smiles and says[Dsus4] i'll see you around  [G]
Solo (electric)

[End]                                     
Acoustic solo (Capo 3)
/=slide

e|-------------------------------------------------------------|
B|----------------------------------------------------------1--|
G|----------------0-0h2---0h2-0------------------0-0h2--2/4-2--|
D|--0h2-0h2---0h2-2-3-----3---3----0h2-0h2---0h2-2-3----3/5----|
A|--3---3-----3-----0--------------3---3-----3-----------------|
E|-------------------------------------------------------------|


Acoustic solo (Capo 8)

e|-------------------------------------------------------------|
B|-------------------------------------------------------------|
G|----------------------------------------------------------0--|
D|----------------0-0h2---0h2-0------------------0-0h2--2/4-2--|
A|--0h2-0h2---0h2-2-3-----3---3----0h2-0h2---0h2-2-3----3/5----|
E|--3---3-----3-----0--------------3---3-----3-----------------|


Second solo (electric) (capo 3)
(capo 8 is the same one string down)

e|--------------------------------------------|
B|--------------------------------------------|
G|--------------0-----------------0 0h2-2-0---|
D|--0h2-0h2 0h2--------0h2-0h2-0h2------------|
A|----------------0---------------------------|
E|--------------------------------------------|				


Important: The song above is NOT stored on the Chordie server. The original song is hosted at www.guitaretab.com. Chordie works as a search engine and provides on-the-fly formatting. Chordie does not index songs against artists'/composers' will. To remove this song please click here.

Text color:
Chord color:
Chord grids: 
Font size:    
Page size: 

Cadd9 Dsus4 Em7 G
variations - click chord images

Login - add to songbook

Transpose chords

Tuning

Rating click stars to rate

Layout
Accuracy

SHARE PAGE  




You need to log in to post comments