Chordie logo


On The Way Down   Ryan Cabrera



Dean Geyer - On the Way Down
Album Take It All Away
Arangement for: Bradley Holder
Tabber: Bradley Holder

Took me about an hour to tab. Great Song.
If anyone copies my tab and posts it I will hunt you down and steal all of your blue 
One from each pairÂ… Just one and just the Blue OnesÂ…


Lineup: 1 Acoustic Guitar
        2 Electric Guitars


INTRO/VERSE

Acoustic Guitar:

e|-0--0--0--0--0-0--0---||
B|-0--0--0--0--0-0--0---||
G|-6--6--6--6--6-6--6---||
D|-4--0--7--6--7-6--4---||
A|----------------------||
E|----------------------||

Electric 1:
e|-0--0--0--0--0-0--0---||
B|-0--0--0--0--0-0--0---|| Use Clean with Wah
G|-6--6--6--6--6-6--6---||
D|-4--0--7--6--7-6--4---||
A|----------------------||
E|----------------------||


Electric 2:
e|-2--2--0--0----||
B|-2--3--0--0----||
G|-2--2--2--1----||
D|-4--0--2--2----|| Clean
A|-4-----0--2----||
E|-2--------0----||

CHORUS

Acoustic:

e|-2--2--0--0----||  E|-2--0--2--|
B|-2--3--0--0----||  B|-2--0--3--|
G|-2--2--2--1----||: G|-2--1--2--|
D|-4--0--2--2----||  D|-4--2--0--|
A|-4-----0--2----||  A|-4--2-----|
E|-2--------0----||  E|-4--0-----|

Electric 1:

e|-2--------0----||  E|-2--0-----|
B|-2--------0----||  B|-2--0-----|
G|-2--7-----1----||: G|-2--1--7--|
D|-4--7--7--2----||  D|-4--2--7--| Overdrive
A|-4--5--7--2----||  A|-4--2--5--| A Boss DS1 or DS2 will work wonders
E|-2-----5--0----||  E|-4--0-----|


Electric 2:

e|-2--------0----||  E|-2--0-----|
B|-2--------0----||  B|-2--0-----|
G|-2--7-----1----||: G|-2--1--7--| Overdrive
D|-4--7--7--2----||  D|-4--2--7--| A Boss DS1 or DS2 will work wonders
A|-4--5--7--2----||  A|-4--2--5--|
E|-2-----5--0----||  E|-4--0-----|

VERSE 2

Acoustic Guitar:

e|-0--0--0--0--0-0--0---||
B|-0--0--0--0--0-0--0---||
G|-6--6--6--6--6-6--6---||
D|-4--0--7--6--7-6--4---||
A|----------------------||
E|----------------------||

Electric 1:
e|-0--0--0--0--0-0--0---||
B|-0--0--0--0--0-0--0---|| Use Clean with Wah
G|-6--6--6--6--6-6--6---||
D|-4--0--7--6--7-6--4---||
A|----------------------||
E|----------------------||

Electric 2:
e|-2--2--0--0----||
B|-2--3--0--0----||
G|-2--2--2--1----||  Clean
D|-4--0--2--2----||
A|-4-----0--2----||
E|-2--------0----||

CHORUS

Acoustic:

e|-2--2--0--0----||  E|-2--0--2--|
B|-2--3--0--0----||  B|-2--0--3--|
G|-2--2--2--1----||: G|-2--1--2--|
D|-4--0--2--2----||  D|-4--2--0--|
A|-4-----0--2----||  A|-4--2-----|
E|-2--------0----||  E|-4--0-----|
Electric 1:

e|-2--------0----||  E|-2--0-----|
B|-2--------0----||  B|-2--0-----|
G|-2--7-----1----||: G|-2--1--7--|
D|-4--7--7--2----||  D|-4--2--7--| Overdrive
A|-4--5--7--2----||  A|-4--2--5--| A Boss DS1 or DS2 will work wonders
E|-2-----5--0----||  E|-4--0-----|


Electric 2:

e|-2--------0----||  E|-2--0-----|
B|-2--------0----||  B|-2--0-----|
G|-2--7-----1----||: G|-2--1--7--| Overdrive
D|-4--7--7--2----||  D|-4--2--7--| A Boss DS1 or DS2 will work wonders
A|-4--5--7--2----||  A|-4--2--5--|
E|-2-----5--0----||  E|-4--0-----|

BRIDGE

Acoustic:
e|-0--0--0--0--2--0--2--0--||
B|-0--0--0--0--2--0--3--0--||
G|-1--7--4--7--2--1--2--1--||
D|-2--7--4--7--4--2--0--2--||
A|-2--5--2--5--4--2-----2--||
E|-0-----------2--0--------||

Electric 1:
e|-0--0--0--0--2--0--2--0--||
B|-0--0--0--0--2--0--3--0--||
G|-9--7--4--7--2--9--2--1--|| Overdrive
D|-9--7--4--7--4--9--0--2--||
A|-7--5--2--5--4--7-----2--||
E|-0-----------2--0--------||

Electric 2:
e|-0--0--0--0--2--0--2--0--||
B|-0--0--0--0--2--0--3--0--||
G|-1--7--4--7--2--1--2--1--|| Overdrive
D|-2--7--4--7--4--2--0--2--||
A|-2--5--2--5--4--2-----2--||
E|-0-----------2--0--------||

Break Down

Electric 1:
e|--0------0----|------0--0--|--0--0|
B|----0--0---0-0|--3-----3---|--0--3|
G|-----2------1-|-----2-----:|--1--2| Clean
D|-4-----2------|0---0----0--|--2--0|
A|--------------|------------|--2---|
E|--------------|------------|--0---|

*Acoustic and Electric 2 are silent
during the Break Down section.

CHORUS

Acoustic:

e|-2--2--0--0----||
B|-2--3--0--0----||
G|-2--2--2--1----||
D|-4--0--2--2----||
A|-4-----0--2----||
E|-2--------0----||

Electric 1:

e|-2--------0----||
B|-2--------0----||
G|-2--7-----1----||
D|-4--7--7--2----|| Overdrive
A|-4--5--7--2----||
E|-2-----5--0----||

Electric 2:

e|-2--------0----||
B|-2--------0----||
G|-2--7-----1----|| Overdrive
D|-4--7--7--2----||
A|-4--5--7--2----||
E|-2-----5--0----||


OUTRO (Repeat Below until the end and then finish on a E Chord)

Acoustic:

e|-2--2--0--0----||
B|-2--3--0--0----||
G|-2--2--2--1----||
D|-4--0--2--2----||
A|-4-----0--2----||
E|-2--------0----||

Electric 1:

e|-2--------0----||
B|-2--------0----||
G|-2--7-----1----||
D|-4--7--7--2----|| Overdrive
A|-4--5--7--2----||
E|-2-----5--0----||

Electric 2:

e|-2--------0----||
B|-2--------0----||
G|-2--7-----1----|| Overdrive
D|-4--7--7--2----||
A|-4--5--7--2----||
E|-2-----5--0----||



Important: The song above is NOT stored on the Chordie server. The original song is hosted at www.guitaretab.com. Chordie works as a search engine and provides on-the-fly formatting. Chordie does not index songs against artists/composers will. To remove this song please click here.

This song is displayed as text-only. Transposing and tuning is only available for chordpro-songs.

Login - add to songbook

Rating click stars to rate

Layout
Accuracy

SHARE PAGE  




You need to log in to post comments