Guitar Tabs, Chords and Lyrics


Take It All Away  Ryan Cabrera

e|-2----------------2/3--2----|


b|-3--3--------3/5------------|


G|-2----2-0h2-----------------|

D|-0--------------------------|
A|----------------------------|
E|----------------------------|
e|----0h2----2-3-3/5-3-2-0----|
b|---------3---------------3--|
G|-2--------------------------|
D|----------------------------|
A|----------------------------|
E|----------------------------|
[D]So much beauty in [F#m]life, Shining on the [G]outside, Empty on the [Em]inside
[D]I get lost some[F#m]times, Blinded by the [G]flashing lights distractions always [Em]in my eyes
[Bm] So i'm following the [F#]sound, the sound of my [G]heart --- [Gm]beating
(cho)
[D]You can take it all [Fm]away I don't need it
[G]Underneath, [Gm]i'll still be the same
[D]You can take it all [Fm]away
I don't need it, [G]it's not me
You can [Gm]take it all, take it all [G]away
[Gm]I'll still be the [D]same


e|-2----------------2/3--2----|
b|-3--3--------3/5------------|
G|-2----2-0h2-----------------|
D|-0--------------------------|
A|----------------------------|
E|----------------------------|


[D]Are you hiding [F#m]still? Don't you want to [G]love yourself?
Don't you know that [Em]someone will?
[D]Time can turn it [F#m]around
Leave it all and [G]strip it down
That's the only way to [Em]find it out
[Bm] Are you following the[F#] sound, the sound of yo[G]ur heart? --- [Gm]beating..

(cho 2)

[D]You can take it all [Fm]away I don't need it
[G]Underneath, [Gm]i'll still be the same
[D]You can take it all [Fm]away
I don't need it, [G]it's not me
You can [Gm]take it all away

(bridge)
[F]Coming in with nothing, [C]leaving with the same
[Bb]It's all i[C]nside
[F]Coming in with nothing, the [C]only thing that saves
[Bb]Is here i[C]nside

(repeat cho)

Important: The song above is NOT stored on the Chordie server. The original song is hosted at www.guitaretab.com. Chordie works as a search engine and provides on-the-fly formatting. Chordie does not index songs against artists'/composers' will. To remove this song please click here.

Text color:
Chord color:
Chord grids: 
Font size:    
Page size: 

Bb Bm C D Em F F# F#m Fm G Gm
variations - click chord images

Login - add to songbook

Transpose chords

Tuning

Rating click stars to rate

Layout
Accuracy

SHARE PAGE  




You need to log in to post comments