""; ?> Jah Didnt Kill Johnny by Sage Francis - guitar chords, guitar tabs and lyrics - chordie

Jah Didnt Kill Johnny

Sage Francis

-------------------------------------------------------------------------------

-------------------------------------------------------------------------------

 A-Bm-D
                                     The picking part:

 ABmD
eb|-------------------------------------------------------------|
Bb|-------2-----------3-----------3-------3---------------------|
F#|---------2-----------4-------2---2---2---2-------------------|
C#|-----2-----------4---------0-------0-------------------------|
G#|---0-----------2---------------------------------------------|
Eb|-------------------------------------------------------------|


00:48

A (chords) Bm D
jah didn't kill johnny

 D
 he had a date with death

 ABm
it was a slow train coming

 D
and we've all got a train to catch

 ABmDA
but lord, take your filthy claws off the rest of my friends.  

 BmD
that is, of course, if they ain't already dead.

A (pick) Bm D
i make no demands. i just made amends.

 ABm
i made my bed and i'mma lie in it

 DABmD
but before i die...please...don't take any more of my friends        

 ABm
please don't take any more of my friends.   

 D
life is easy.

A (chords) Bm D
the smoke didn't kill johnny. the drink didn't kill johnny.

 ABmD
 the junk didn't kill johnny. and the women didn't kill johnny.

 ABm
was it the road? i don't know.

 D
was it rock and roll? i don't think so.

A Bm D A (pick) Bm D
but god. god. god...would never...kill...johnny cash.

 ABmD
he had a train to catch        

 ABmD
he had a date with death        

 ABm
and we've all got a train to catch    

D A... (Progress the chords and fade out)
life is easy. holler at ya boy. life is easy.

| / slide up
| \ slide down
| h hammer-on
| p pull-off
| ~ vibrato
| + harmonic
| x Mute note
===============================================================================


A Bm D
variations - click chord images
Transpose chords:
Tuning:
Cool service:
View: Size:
A  A  A
Rating:
Layout:
  • Currently 3.2/5 Stars.
  • 1
  • 2
  • 3
  • 4
  • 5
 
Accuracy:
  • Currently 3/5 Stars.
  • 1
  • 2
  • 3
  • 4
  • 5
 
click stars to rate
Chordie recommends:
Learn to play guitar with video-based, online guitar lessons at JamPlay.com
Songbook:
Login to add this song to your songbook
Support the artist
Preview/buy this song
MSN Music
Why this non-profit ad?

 
login to add comments/video/corrections