Chordie logo


Hobart Paving  Saint Etienne

I heard she [C]drove the silvery [G]sports-car
Along the [Am]empty streets last [G]night.
Hanging [F]around with hair-dos like [C]mine.
No, i [F]haven't seen the kids for some [G]time.
Picked up her [C]shoes from the red-brick [G]stairway,
Just like a [Am]harpsichordist she [G]moved.
And back up[F]stairs at half past [C]two,
With a [F]paper folded, outside the [G]loo.
[Dm]Rain falls[F] like elvis tears.
[C]Oh no,[G] no sugar tonight.
[Dm]Out on the high street, [G]dim all the lights and
[Dm]Cry coloured tears a[G]gain.
And [C]baby, (don't forget to catch me.)
[Am]Don't forget to catch me. ([F]don't forget to [G]catch me.)
[C]Hobart paving, don't you [Am]think that it's [G]time?
[C]On this platform with the [Am]drizzle in my [G]eyes?
And [C]baby, (don't forget to catch me.)
[Am]Don't forget to catch me. ([F]don't forget to [G]catch me.)
[C]Hobart paving, don't you [Am]think that it's [G]time?
[C]The ticket's in my hand, [Am]the train pulls down the [G]line.
[Dm]Rain falls[F] like elvis tears.
[C]Oh no, [G]no sugar.
[Dm]Out on the high street, [G]dim all the lights and
[Dm]Cry coloured [G]tears.
( Solo (capo 1st fret) )
e|--------0-1-0-----------------------------1-0---0---------1-0-1-0----

B|----1-3-------3-3-------0-1---1-0-0-----1-----3---1-1-------------3--
G|--0-------------------2-----2---------2---------------0-2------------
D|--------------------2------------------------------------------------
A|---------------------------------------------------------------------
E|---------------------------------------------------------------------
e|--------0-0-----------------0-0---------3-5-7-8-1-0---------1-0-1-0----
B|------------------3-3-1-0-1-----3-1-3---------------3-1-------------3--
G|--0-2-0-----0-2-0---------------------------------------0-2------------
D|-----------------------------------------------------------------------
A|-----------------------------------------------------------------------
E|-----------------------------------------------------------------------
And [C]baby, (don't forget to catch me.)
[Am]Don't forget to catch me. ([F]don't forget to [G]catch me.)
[C]Hobart paving, don't you [Am]think that it's [G]time?
[C]On this platform with the [Am]drizzle in my [G]eyes?
Oh no, no [C]sugar to[Am]night, ([Am]don't forget to catch me.)
Oh no, no [C]sugar to[Am]night, ([F]don't forget to [G]catch me.)
Oh no, no [C]sugar to[Am]night, ([Am]don't forget to catch me.)
[F]don't forget to [G]catch me...

[C] [G] [C] [F] [C]

One way to play the solo without capo.
e|---------------------------------------------------------------------

B|------4-6-7-6-4-4-------1-2---2-1-1-------7-6---6---------7-6-7-6----
G|----6-----------------3-----3-----------6-----8---6-6-------------8--
D|--6-----------------3-----------------8---------------6-8------------
A|---------------------------------------------------------------------
E|---------------------------------------------------------------------
e|------------------------------------------6-8-9-------------------------
B|--------6-6-----------------6-6---------9-------7-6---------7-6-7-6-----
G|------------------8-8-6-5-6-----8-6-8---------------8-6--------------8--
D|--6-8-6-----6-8-6---------------------------------------6-8-------------
A|------------------------------------------------------------------------
E|------------------------------------------------------------------------
Oh, the lyrics are from Saint Etienne Heaven. Go you the St.E fanclub now!

Important: The song above is NOT stored on the Chordie server. The original song is hosted at www.guitaretab.com. Chordie works as a search engine and provides on-the-fly formatting. Chordie does not index songs against artists/composers will. To remove this song please click here.

Text color:
Chord color:
Chord grids: 
Font size:    
Page size: 

Am C Dm F G
variations - click chord images

Login - add to songbook

Transpose chords

Tuning

Rating click stars to rate

Layout
Accuracy

SHARE PAGE  




You need to log in to post comments