Guitar Tabs, Chords and Lyrics


J W  Saints

E ---------------------------------------------------------------------|


B ---------------------------------------------------------------------|


G -----9-9-9---9-9-9---------------------------------------------------|

D -----9-9-9---7-7-7--x12----------------------------------------------|
A -----7-7-7-----------------------------------------------------------|
E ---------------------------------------------------------------------|
E ---------------------------------------------------------------------|
B ---------------------------------------------------------------------|
G ---7--------5--------7--------5--------7--------5--------------------|
D ---7--------5--------5--------5--------7--------5--------------------|
A ---5--------3--------5--------3--------5--------3--------------------|
E ---------------------------------------------------------------------|
E ---------------------------------------------------------------------|
B ---------------------------------------------------------------------|
G --5---5---------------5---5---------------5---5----------------------|
D ----8---8-7-5-----------8---8-7-5-----------8---8-7-5----------------|
A --------------7-5-7-7-------------7-5-7-7-------------7-5-7-7--------|
E ---------------------------------------------------------------------|
E ---------------------------------------------------------------------|
B ---------------------------------------------------------------------|
G --9-----5-----------5------------------------------------------------|
D --9-x4--5-x4--7-----5-x8--5-----3-----3-----5------------------------|
A --7-----3-----7-x4--3-----5-x4--3-x4--3-x6--5-x8---------------------|
E --------------5-----------3-----1-----1-----3------------------------|
E ---------------------------------------------------------------------|
B ---------------------------------------------------------------------|
G --5-----------------5------------------------------------------------|
D --5-x7--5-----3-----5-x7--5-----3------------------------------------|
A --3-----5-x4--3-x4--3-----5-x4--3-x4---------------------------------|
E --------3-----1-----------3-----1------------------------------------|
E ---------------------------------------------------------------------|
B ---------------------------------------------------------------------|
G --9-----5-----------5------------------------------------------------|
D --9-x4--5-x4--7-----5-x8--5-----3-----3-----5------------------------|
A --7-----3-----7-x4--3-----5-x4--3-x4--3-x6--5-x8---------------------|
E --------------5-----------3-----1-----1-----3------------------------|
[C]Put on my nec[G]k tie, hoped [Am]that she'd come b[E]y
[C]She'd come and say hi, N[G]o words would come o[Am]ut and i'd hope i di[E]e.
[C]I feel like shit,[G] That she's with[Am] another guy..[E].
[C]She's so dam [G]nice, im worrie[Am]d he'll pretend[E] not to hear her cry
C G Am E....

Important: The song above is NOT stored on the Chordie server. The original song is hosted at www.guitaretab.com. Chordie works as a search engine and provides on-the-fly formatting. Chordie does not index songs against artists'/composers' will. To remove this song please click here.

Text color:
Chord color:
Chord grids: 
Font size:    
Page size: 

Am C E G
variations - click chord images

Login - add to songbook

Transpose chords

Tuning

Rating click stars to rate

Layout
Accuracy

Jango Player

SHARE PAGE  




You need to log in to post comments