Guitar Tabs, Chords and Lyrics


Roth Kung Foo   Salads



SONG: ROTH KUNG FOO
TABBED BY: DORTEATER
this is a really cool song by a toronto bad called the salads i am suprised nobody has
tabbed it i only tabbed the intro and it is 100% correct enjoy

e-------------------------------------------------|
b-------------------------------------------------|
g-------------9/-11-11-11-11-11/-9-9--------------|
D-7/-9-9-9-9--X/-X--X--X--X--X/--X-X--------------|
A-X/-X-X-X-X--7/-9--9--9--9--9/--7-7--------------|
E-5/-7-7-7-7--------------------------------------|

e-------------------------------------------------|
b-------------------------------------------------|
g-------------9/-11-11-11-11-11/-9-9--------------|
D-7/-9-9-9-9--X/-X--X--X--X--X/--X-X--------------|
A-X/-X-X-X-X--7/-9--9--9--9--9/--7-7--------------|


Important: The song above is NOT stored on the Chordie server. The original song is hosted at www.guitaretab.com. Chordie works as a search engine and provides on-the-fly formatting. Chordie does not index songs against artists/composers will. To remove this song please click here.

This song is displayed as text-only. Transposing and tuning is only available for chordpro-songs.

Login - add to songbook

Rating click stars to rate

Layout
Accuracy

SHARE PAGE  




You need to log in to post comments