Chordie logo


Two Steps Back   Saliva



Saliva - Two Steps back

Tuning C G C F A D

Intro Guitar 1: Chorus & distortion
D|-----------------------------------------------|
A|-----------------------------------------------|
F|----12-12-10-9----------------10-12------------|
C|-10------------10----------10------------------|
G|-------------------8--8-10---------------------|
C|-----------------------------------------------|

Intro Guitar 2:
D|---------------------------------|--------------|
A|---------------------------------|--------------|
F|--------5-5-5-5---------3-3-3-3--|--------------|
C|--------5-5-5-5---------3-3-3-3--|--33-55-5-----|
G|--5555--3-3-3-3--33-33--1-1-1-1--|--33-55-5-----|
C|--5555-----------33-33-----------|--11-55-5-----|

Verse Clean: guitar 2
D|-----------------------------------------------|---------------------------------|
A|-----------------------------------------------|-------------------------*******-|
F|-----------------------------------------------|-------------------------5555555-|
C|-----------------------------------------------|---------------------------------|
G|--5-555-333-111-333---555--8888-10-10-10--3333-|---------------------------------|
C|--5-555-333-111-333---555--8888-10-10-10--3333-|--5555-8888-10-10-10-10----------|

Guitar 2:
D|-----------------------------------------------|
A|-----------------------------------------------|
F|------7--5-------------------------------------|
C|-----------------------------------------------|
G|--5--------------------------------------------|
C|-----------------------------------------------|

Bridge:
D|-----------------------------------------------|
A|-----------------------------------------------|
F|-555555555-------------------------------------|
C|-555555555---3---5---8---5--\------3--5--8--5--|
G|-333333333---3---5---8---5--\------3--5--8--5--|
C|-------------3---5---8---5--\------3--5--8--5--|

D|---------------------------------------------------------------|
A|---------------------------------------------------------------|
F|---------------------------------------------------------------|
C|---------------------------------------------------------------|
G|-1-1-1-1-1-1-1-1-3-3-3-3-3-3-3---------------------------------|
C|-1-1-1-1-1-1-1-1-3-3-3-3-3-3-3---then-back-to-intro-riff-------|



Important: The song above is NOT stored on the Chordie server. The original song is hosted at www.guitaretab.com. Chordie works as a search engine and provides on-the-fly formatting. Chordie does not index songs against artists/composers will. To remove this song please click here.

This song is displayed as text-only. Transposing and tuning is only available for chordpro-songs.

Login - add to songbook

Rating click stars to rate

Layout
Accuracy

SHARE PAGE  




You need to log in to post comments