Guitar Tabs, Chords and Lyrics
Major upgrade!! After one year development the new version of Chordie is now online! Please give feedback.


Them Kids   Sam Roberts

 
 E|-------------------------------------------------------------------|
 B|-------------------------------------------------------------------|
 G|------------10--12----------10--12----------10--12----------10--12-|
 D|--10--12------------10--12----------10--12----------10--12---------|
 A|-------------------------------------------------------------------|
 E|-------------------------------------------------------------------|
 E|--------------------------------------------------------------------|
 B|----------------------------------13--------------------------------|
 G|------------12-------------14--12----14---12------------------------|
 D|--12--14---------12--14------------------------14--12---------------|
 A|--------------------------------------------------------------------|
 E|--------------------------------------------------------------------|

 


 


 Riff #1 (Played during the Chorus)


 


 

 
 E|-------------------------------------------------------------------|
 B|-------------------------------------------------------------------|
 G|--14--18--14------14--18--14------14--18----------14--18-----------|
 D|--------------18--------------18----------14--18----------14--18---|
 A|-------------------------------------------------------------------|
 E|-------------------------------------------------------------------|


Important: The song above is NOT stored on the Chordie server. The original song is hosted at www.guitaretab.com. Chordie works as a search engine and provides on-the-fly formatting. Chordie does not index songs against artists'/composers' will. To remove this song please click here.

This song is displayed as text-only. Transposing and tuning is only available for chordpro-songs.
Rate #2 of 5 versions

Jango Player

Login - add to songbook

SHARE PAGE  




You need to log in to post comments