Guitar Tabs, Chords and Lyrics


Mud Hill   Samiam



Intro:
e---------------------------------------------|
B-----5------------5--------------------------|
G-------5--------5----------------------------|
D---------------------------------------------| x4
A--0-------5--3-------------------------------|
E---------------------------------------------|


Verse:
"Car windows icing over"
e------------------------------------------------|
B-----5--------5-------5------5------------------|
G------5--------5-------5------5-----------------|
D----------33------------------------------------|
A--55---------------33-------33------------------|
E------------------------------------------------|

Pre Chorus:
"You say you don't want anyone or anything"
e---------------------------------------------|
B---------------------------------------------|
G---------------------------------------------|
D--10-10--9-9------7-7-7--5-5-5--3-3-3--------|
A--10-10--9-9------7-7-7--5-5-5--3-3-3--------|
E--8--8---7-7------5-5-5-\3-3-3-\1-1-1--------|
pm.......................

Chorus:
"So Spare me now"
e---------------------------------------------|
B---------------------------------------------|
G------------------------5--------------------|
D--5-------2------5------5--------------------|
A--5-------2------5------3(8x)----------------|
E--3(8x)---0(8x)--3(8x)-----------------------|

Guitar #2 does the same, but in octaves:
--------------5-|
-12---9--12---x-|
--x---x-------3-|
-10---7--10-----|

Then:
e---------------------------------|
B---------------------------------|
G---------------------------------|
D--7-7-7--5-5-5--3-3-3-3-3-3-3~---|
A--7-7-7--5-5-5--3-3-3-3-3-3-3~---|
E--5-5-5-\3-3-3-\1-1-1-1-1-1-1~---|

Intro

Verse: "I pretend to hear you"

Chorus

Solo (Each transition is a slide)
e-----------------------------------------------------------------------------------------------|
B-----------------------------------------------------------------------------------------------|
G-12-10--9--7--5--7--9-10-12-10--9--7--5--7--9--5--12-10--9--14--12--9--14--12--12-10--9--7--5--|
D-x--x--x--x--x--x--x--x--x--x--x--x--x--x--x--x---x--x--x---x---x--x---x---x---x--x--x--x--x---|
A-10--8--7--5--3--5--7--8-10--8--7--5--3--5--7--3--10--8--7--12--10--7--12--10--10--8--7--5--3--|
E-----------------------------------------------------------------------------------------------|

Chorus 2x

Ends on
D-3--
A-3--


Important: The song above is NOT stored on the Chordie server. The original song is hosted at www.guitaretab.com. Chordie works as a search engine and provides on-the-fly formatting. Chordie does not index songs against artists/composers will. To remove this song please click here.

This song is displayed as text-only. Transposing and tuning is only available for chordpro-songs.

Login - add to songbook

Rating click stars to rate

Layout
Accuracy

SHARE PAGE  




You need to log in to post comments