Bonggahan

Sampaguita

 C-G-G-
E|-3-3-3-3-3-3-3-3---3-3-3-x-3-3-3-3---3-3-3-x-3-3-3-3-|
B|-5-6-5-6-5-6-5-5---3-5-3-x-3-3-5-3---3-5-3-x-3-3-5-3-|
G|-5-5-5-5-5-5-5-5---4-4-4-x-4-4-4-4---4-4-4-x-4-4-4-4-|
D|-5-5-5-5-5-5-5-5---5-5-5-x-5-5-5-5---5-5-5-x-5-5-5-5-|
A|-----------------------------------------------------|
E|-----------------------------------------------------|


 C-C-F-
E|-3-3-3-3-3-3-3-3----3-3-3-3-3-3-3-3---1-1-1-x-1-1-1-1-|
B|-5-6-5-6-5-6-5-5----5-6-5-6-5-6-5-5---1-3-1-x-1-1-3-1-|
G|-5-5-5-5-5-5-5-5----5-5-5-5-5-5-5-5---2-2-2-x-2-2-2-2-|
D|-5-5-5-5-5-5-5-5----5-5-5-5-5-5-5-5---3-3-3-x-3-3-3-3-|
A|------------------------------------------------------|
E|------------------------------------------------------|


 C-G-C-
E|-3-3-3----3-3-3-3---3-3-3-3-3-|
B|-5-6-5----3-3-5-3---5-6-5-6-3-|
G|-5-5-5----4-4-4-4---5-5-5-5-5-|
D|-5-5-5----5-5-5-5---5-5-5-5-5-|
A|------------------------------|
E|------------------------------|


Verse 1:
Panahon na para . . .
C - G - G - C - pause
E|-3-3-3-x-3-3-3-3---3-3-3-x-3-3-3-3---3-3-3-x-3-3-3-3---3-3-3-3-3-|
B|-5-6-5-x-5-5-6-5---3-5-3-x-3-3-5-3---3-5-3-x-3-3-5-3---5-6-5-6-5-|
G|-5-5-5-x-5-5-5-5---4-4-4-x-4-4-4-4---4-4-4-x-4-4-4-4---5-5-5-5-5-|
D|-5-5-5-x-5-5-5-5---5-5-5-x-5-5-5-5---5-5-5-x-5-5-5-5---5-5-5-5-5-|
A|-----------------------------------------------------------------|
E|-----------------------------------------------------------------|


Di ko type . . .
C - F - C - G - C – F – C pause
E|-3-3-3-x-3-3-3-3---1-1-1-x-1-1-1-1---3-3-3---3-3-3-3---3-3-1-1-3-|
B|-5-6-5-x-5-5-6-5---1-3-1-x-1-1-3-1---5-6-5---3-3-5-3---5-5-1-1-5-|
G|-5-5-5-x-5-5-5-5---2-2-2-x-2-2-2-2---5-5-5---4-4-4-4---5-5-2-2-5-|
D|-5-5-5-x-5-5-5-5---3-3-3-x-3-3-3-3---5-5-5---5-5-5-5---5-5-3-3-5-|
A|-----------------------------------------------------------------|
E|-----------------------------------------------------------------|


Adlib 1: Do Intro part 2 pattern except last C. Instead, do C-F–C, as below:
C - F - C - pause
E|-3-3----1-1----3-|
B|-5-5----1-1----5-|
G|-5-5----2-2----5-|
D|-5-5----3-3----5-|
A|-----------------|
E|-----------------|


Refrain:
Di ko say na magwala ka . . .
E|-15-(16x)---8-(16x)---12-(16x)----14-(8x)-|
B|------------------------------------------|
G|------------------------------------------|
D|------------------------------------------|
A|------------------------------------------|
E|------------------------------------------|


Verse 2: Do Verse 1 pattern
Adlib 2: Do Adlib 1 pattern
Refrain: Do Refrain pattern
Repeat Verse 1: Do Verse 1 pattern

Outro:

Kaya join na lang kayo Let's all have a good time
C G C pause
E|-12-(8x)---10-(8x)---12-(10x)-|
B|------------------------------|
G|------------------------------|
D|------------------------------|
A|------------------------------|
E|------------------------------|


Kaya join na lang kayo Let's all have a good time.
 CG
E|----------------------------------------------------------|
B|-13---13-13---13-13---13-13---13-12---12/13—12---12/13-12-|
G|----------------------------------------------------------|
D|----------------------------------------------------------|
A|----------------------------------------------------------|
E|----------------------------------------------------------|


C-F-C, C#7, C
E|-------12-12-13-13-14-14-15---------------|
B|-13-13------------------------13/15-13~~~-|
G|------------------------------------------|
D|------------------------------------------|
A|------------------------------------------|
E|------------------------------------------|				



C F G
variations - click chord images
Transpose chords:
Tuning:
Cool service:
View: Size:
A  A  A
Rating:
Layout:
  • Currently 2.2/5 Stars.
  • 1
  • 2
  • 3
  • 4
  • 5
 
Accuracy:
  • Currently 2.8/5 Stars.
  • 1
  • 2
  • 3
  • 4
  • 5
 
click stars to rate
Chordie recommends:
Learn to play this song & others via video guitar lessons at JamPlay.com
Songbook:
Login to add this song to your songbook
Support the artist
Preview/buy this song
MSN Music
Why this non-profit ad?

 
login to add comments/video/corrections