"yes"; ?> Sunset Borderline by Sandi Thom - guitar chords, guitar tabs and lyrics - chordie

Sunset Borderline

Sandi Thom

 CGAmFG
e|-0-------0-3--0-|---------3-----|---------0-------|----2-|
B|-------1--------|-------3---3---|-------1---1-----|-1--2-|
G|-----0----------|-----0-------0-|-----2-------2---|-2--0-|
D|---2------------|-----0---------|---2-----------2-|-3--0-|
A|-3--------------|---2-----------|-0---------------|-3--2-|
E|----------------|-3-------------|-----------------|----3-|


VERSE:

 CGAmF
simple scent of summer,   Stole my heart for the last dance
 CGAmFG
the smell of two stroke petrol from the    motorbike we used to have
 CG
 those playing fields of cut grass
 AmF
you know    high school left me   kinda blue
 CGAmFG
now with every sweet summer breeze    i, i'll be thinking,  i'll be thinking
 C
of you

CHORUS:

 CG
Now i'm waiting for the sunset borderline
 FG
'cos every suns gotta set with time
 CG
but i'll remember those moments forever more
 FGC
as the days where nothing had changed at all

VERSE: Same chord progression as first verse.

found a long lost picture of the car we used to run
cotton candy coloured paintwork looked so faded in the sun
and that 6 o'clock sunrise you always used to drive me to
guess that long lost picture will always have me thinking, have me thinking of you

CHORUS: Tabbed above.

BRIDGE:

 FGC
So for every little sad sweet love song that's ever sung, i'll be thinking
 FGC
and for every lost summers day that ever been and gone, i'll be thinking
 FGCG
I wonder if your gonna be the tear that follows me,
 FCG
until that sun is set i guess i'll always be

CHORUS: Tabbed above.

VERSE: Same chord porgression as first and second verses.

tuned into the radio flicking through teh stations one by one
tried to listen through the rain while
humming those melodies alone
I remember how you told me lennon and mccartney
always pulled you through
so as the music fades out i'll be thinking, I'll be thinking of you

OUTRO:

 CGAmFGC
e|-0-------0-3--0-|---------3-----|---------0-------|----2----|
B|-------1--------|-------3---3---|-------1---1-----|-1--2--1-|
G|-----0----------|-----0-------0-|-----2-------2---|-2--0--0-|
D|---2------------|-----0---------|---2-----------2-|-3--0--2-|
A|-3--------------|---2-----------|-0---------------|-3--2--3-|
E|----------------|-3-------------|-----------------|----3--0-|				



Am C F G
variations - click chord images
Transpose chords:
Tuning:
Cool service:
View: Size:
A  A  A
Rating:
Layout:
  • Currently 0/5 Stars.
  • 1
  • 2
  • 3
  • 4
  • 5
 
Accuracy:
  • Currently 0/5 Stars.
  • 1
  • 2
  • 3
  • 4
  • 5
 
click stars to rate
Chordie recommends:
Learn to play this song & others via video guitar lessons at JamPlay.com
Songbook:
Login to add this song to your songbook
Support the artist
Preview/buy this song
MSN Music
Why this non-profit ad?

 
login to add comments/video/corrections